PrimaNota.ru - самый крупный в мире бесплатный архив песенных текстов, аккордов, табулатур и нот


Coma - Transfuzja - таба, видео

Регистрация Запомнить меня
Войти через:  Facebook Google Twitter Vk Yandex Mail.ru

Coma - Transfuzja - таба, видео

Печатать
Просмотров: 206
Eb|--------------------------------------------------------|
Hb|--------------------------------------------------------|
Gb|--------------------------------------------------------|
Db|--0------------0------------0------------0-------------0|
Ab|--0---1-0-1-0--0---1-0-1-0--0---1-0-1-0--0---1-0-1-1-1-0|
Db|--0---1-0-1-0--0---1-0-1-0--0---1-0-1-0--0---1-0-1-1-1-0|
pm                                                  * * * *

Eb|---------------------------------|
Hb|---------------------------------|
Gb|---------------------------------|
Db|---------------------------------|
Ab|--0--2--0--4--0--2--0--4--x-x-x-x|
Db|--0--2--0--4--0--2--0--4--x-x-x-x|
pm

Eb|------------------------------------------|
Hb|------------------------------------------|
Gb|------------------------------------------|x4
Db|------------------------------------------|
Ab|--8--8/(12)--12--12x--5--5/(8)--8--5-4-3-0|
Db|--8--8/(12)--12--12x--5--5/(8)--8--5-4-3-0|
pm                                    * * * *

Eb|------------------------------------------|
Hb|------------------------------------------|
Gb|--10-10/(14)-14--14x--7--7/(10)-10--------|x4
Db|--8--8/(12)--12--12x--5--5/(8)--8--5-4-3-0|
Ab|--8--8/(12)--12--12x--5--5/(8)--8--5-4-3-0|
Db|--8--8/(12)--12--12x--5--5/(8)--8--5-4-3-0|
pm                                    * * * * 


Eb|-------------------------------|
Hb|-------------------------------|
Gb|-------------------------------|
Db|-------------------------------|
Ab|--0---------00--5-4-3-0-3-2-1-0|
Db|--0-3-4-5^--00--5-4-3-0-3-2-1-0|
pm   * * *     **  * * * * * * * *

Eb|---------------------------|
Hb|---------------------------|
Gb|---------------------------|
Db|---------------------------|
Ab|--0---1-0--5-0--1-0--7--1-1|
Db|--0---1-0--5-0--1-0--7--1-1|
pm       * *  * *  * *  *  * *
Добавлено: 26.02.2012
Другие материалы по этой песне:
  • Аккорды и текст

Страница создана 26.02.2012
http://primanota.ru/coma/transfuzja-chords.htm
Привет, Гость.
Предлагаем пройти революционный курс по гитаре.
Подарок от PrimaNota.Ru, забирай!