PrimaNota.ru - самый крупный в мире бесплатный архив песенных текстов, аккордов, табулатур и нот


Coma - Los Cebula I Krokodyle łzy - бас-таба, видео

Регистрация Запомнить меня
Войти через:  Facebook Google Twitter Vk Yandex Mail.ru

Coma - Los Cebula I Krokodyle łzy - бас-таба, видео

Печатать
Просмотров: 86
Stave 1:

F|-----------|
C|-----------|
G|--0-----3--|
C|-----5-----|

Stave 2:

F|-------------------------------------------------------------------------------|
C|-------------------------------------------------------------------------------|
G|--0--2--2--3--3--5--7--5--7--9--7--3--5--5----0--2--2--3--3--5--0-----2--3--3--|
C|-------------------------------------------------------------------5-----------|

Stave 3:

F|----------------------------------------------------------------------------------|
C|----------------------------------------------------------------------------------|
G|--0--2--2--3--3--5--0-----2--3--3------0--2--2--3--3--5--7--5--7--9--7--3--5--5---|
C|-----------------------5----------------------------------------------------------|

Stave 4:

F|----------------------------------------------------------------------------|
C|----------------------------------------------------------------------------|
G|--7--5--2--3----7--5--2--3--3-----7--10--10--12--2--3------7--5--2--3--3----|
C|----------------------------------------------------------------------------|


Stave 5:

F|--------------------------------------------------------------------------------------------------|
C|--------------------------------------------------------------------------------------------------|
G|--2--2--2--2--2--2--2--2--------------------------5--5--5--5--5--5--5--5--5--5--5--5--5--5--5--5--|
C|--------------------------5--5--5--5--5--5--5--5--------------------------------------------------|

Stave 6:

F|--------------------------|
C|--------------------------|
G|--0--2--3--------0-----3--|
C|--------------------5-----|

Stave 7:

F|-------------------------------|
C|--9--11--12--9--11--12--9--12--|
G|-------------------------------|
C|-------------------------------|

Stave 8:

F|--------------------------------------------------------------------------------------|
C|-----------------------------------------------------------5--4-----------5--5--4-----|
G|--2--2--2--2--2--2--2--2--------------------------5--5--5--------5--5--5-----------5--|
C|--------------------------5--5--5--5--5--5--5--5--------------------------------------|
Добавлено: 20.12.2015
Другие материалы по этой песне:
  • Аккорды и текст

Страница создана 20.12.2015
http://primanota.ru/coma/los-cebula-i-krokodyle-zy-chords.htm
Привет, Гость.
Предлагаем пройти революционный курс по гитаре.
Подарок от PrimaNota.Ru, забирай!