PrimaNota.ru - самый крупный в мире бесплатный архив песенных текстов, аккордов, табулатур и нот


Coma Cinema - Survivors Guilt - таба, видео

Регистрация Запомнить меня
Войти через:  Facebook Google Twitter Vk Yandex Mail.ru

Coma Cinema - Survivors Guilt - таба, видео

Печатать
Просмотров: 157
Уроки эстрадного вокала в Санкт-Петербурге
-------------------------------------------------------------------------------
                             Survivor's Guilt - Coma Cinema
-------------------------------------------------------------------------------
Tuning: Standard
Capo on 4
Tab Relative to Capo
Intro:
e|----------------------------------|
B|----------------------------------|
G|---0-------0-------0-------0------|
D|-------0-------0-------0-------0--|
A|-3---3---3---3---3---3---3---3----|
E|----------------------------------|
Verse:
e|-----------------------------------|
B|-----------------------------------|
G|---0---0---0---0---0---0-------0---|
D|---------------------------0-------|
A|-3---2---0---2-------5---3---3-----|
E|-----------------3-----------------|(x2)

e|-----------------|
B|-----------------|
G|---0---0---0-----|
D|---------------0-|
A|-2---0---3-------|
E|-------------3---|(x4)

e|-------------------------------------|
B|-------------------------------------|
G|---0-------0--------0-------0--------|
D|-------0-------0--------0--------0---|
A|-3---3---5---5----7---5---3---3------|
E|-------------------------------------|

e|------------|
B|------------|
G|---0--------|
D|-------0----|
A|------------|
E|-3---3------|(x4)
Repeat Verse 3 times.
End on
E|-3---|

Very easy song. Very fun to play.
Добавлено: 23.07.2015
Другие материалы по этой песне:
  • Аккорды и текст

Страница создана 23.07.2015
http://primanota.ru/coma-cinema/survivors-guilt-chords.htm
Привет, Гость.
Предлагаем пройти революционный курс по гитаре.
Подарок от PrimaNota.Ru, забирай!