PrimaNota.ru - самый крупный в мире бесплатный архив песенных текстов, аккордов, табулатур и нот


Com Truise - Vhs Sex - бас-таба, видео

Регистрация Запомнить меня
Войти через:  Facebook Google Twitter Vk Yandex Mail.ru

Com Truise - Vhs Sex - бас-таба, видео

Печатать
Просмотров: 82
-------------------------------------------------------------------------------
                             VHS Sex - Com Truise
-------------------------------------------------------------------------------
Tabbed by: Jack Rayner
Twitter: @thejackrayner

Tuning: BF#BE

Intro - repeated following the breakdown.

 E|-------------------|
 B|-------------------|
F#|---3-2-----0-------|
 B|-2-----5-----0-----|

Main Riff

 E|-------------------------------------------------------------|
 B|-------------------------------------------------------------|
F#|-----------2----------------2------2--0---0------------------|    
 B|-2-2---5-4-----2-2--5-4h5p4-------------5------/7-7--7\5-----|

Main Riff Outro - this is my best interpretation of the glitchy synth 
fill that leads into the end of the riff (only play the first time.)

 E|---------------------------7------(7)-|    |-----------------|
 B|---5-------------5-------5----5---(5)-|    |-----------------|
F#|-------5-----------5---5----------(5)-|    |---------0-0---2-|
 B|-----5---5-----------5------------(5)-|x2  |-5-5-2-5-----5---|
                                        

| /  slide up
| \  slide down
| h  hammer-on
| p  pull-off
| ~  vibrato
| +  harmonic
| x  Mute note
===============================================================================
Добавлено: 16.08.2015
Другие материалы по этой песне:
  • Аккорды и текст

Страница создана 16.08.2015
http://primanota.ru/com-truise/vhs-sex-chords.htm
Привет, Гость.
Предлагаем пройти революционный курс по гитаре.
Подарок от PrimaNota.Ru, забирай!