PrimaNota.ru - самый крупный в мире бесплатный архив песенных текстов, аккордов, табулатур и нот


Colour - Kill The Lights - таба, видео

Регистрация Запомнить меня
Войти через:  Facebook Google Twitter Vk Yandex Mail.ru

Colour - Kill The Lights - таба, видео

Печатать
Просмотров: 128
-------------------------------------------------------------------------------
                             Kill The Lights – The Colour
-------------------------------------------------------------------------------
Tabbed by: shpumples
Note; This is my first tab so some of it may not be right.
Tuning: Standard

Intro Guitar 1
e|-------------------------------------------------------------------------------|
B|-------------------------------------------------------------------------------|
G|------7--4------7--4-3---------------------------------------------------|  16-| x
D|---4---------4-----------5--4--------------------------------------------------|
A|------------------------------------------------------------- -----------------|
E|-------------------------------------------------------------------------------|
  Guitar 2
e|----2----        ------7-------       ---------------------------------------------|
B|---3----        ------8-------       ----------------------------------------------|
G|-- 4----        ------9-------       ----------------------------------------------|
D|-- 4----  7 x ------9------- 7x ---------------------------------- ----------------|
A|-- 2----        ----- 7-------       ----------------------------------- ----------|
E|---2----        ------7-------       ----------------------------------------------|
Chorus Guitar 1
e|-----------------------------------------------------------------------------|
B|-----------------------------------------------------------------------------|
G|---------11-----9-------4--------0-------------------------------------------|  2 x
D|---------9------ 7-------2--------2----------------------------------- ------|
A|-----------------------------------------------------------------------------|
E|-----------------------------------------------------------------------------|
Добавлено: 27.06.2012
Другие материалы по этой песне:
  • Аккорды и текст

Страница создана 27.06.2012
http://primanota.ru/colour/kill-the-lights-chords.htm
Привет, Гость.
Предлагаем пройти революционный курс по гитаре.
Подарок от PrimaNota.Ru, забирай!