PrimaNota.ru - самый крупный в мире бесплатный архив песенных текстов, аккордов, табулатур и нот


Colour - Devils Got A Holda Me - бас-таба, видео

Регистрация Запомнить меня
Войти через:  Facebook Google Twitter Vk Yandex Mail.ru

Colour - Devils Got A Holda Me - бас-таба, видео

Печатать
Просмотров: 118
------------------------------------------------------------------------------
		 Devil's Got A Holda Me- The Colour
------------------------------------------------------------------------------

Tabbed By : TheColourLiveOn
e-mail: jokebook234@yahoo.com, please feel free to e-mail me if you think that something 
wrong with my tab, i'll be more than happy to revise it.

Tuning: Standard Tuning
				Verse

G|---------------------------------------------------------------------------|
D|---------------------------------------------------------------------------|
A|------------------------3--------5-5-5-6-5-3-0-----------------------------|
E|------3-5----3-5----3-5--—5----3-------------------------------------------|
				{Repeat 4 Times}

G|---------------------------------------------------------------------------|
D|---------------------------------------------------------------------------|
A|------3-3-3-3-3-3-3-3-5-5-5-5-5-5-5-5--------------------------------------|
E|---------------------------------------------------------------------------|

G|---------------------------------------------------------------------------|
D|---------------------------------------------------------------------------|
A|--------------------3-3-3-3-3-3-3-3-5-5-5-5-5-5-5-5------------------------|
E|------3-5----3-5—----------------------------------------------------------|

G|---------------------------------------------------------------------------|
D|---------------------------------------------------------------------------|
A|------3-3-3-3-3-3-3-3-5-5-5-5-5-5-5-5--------------------------------------|
E|---------------------------------------------------------------------------|
              {Repeat After Drummer Clicks Sticks Together}

				Chorus
G|---------------------------------------------------------------------------|
D|---------------------------------------------------------------------------|
A|---------------------3-3--------5-5---5---5-5-5-5-5-3----------------------|
E|------5-5---5---3-5--------3-----------------------------------------------|
                             {Repeat 4 Times}

				Verse
G|---------------------------------------------------------------------------|
D|---------------------------------------------------------------------------|
A|------------------------3--------5-5-5-6-5-3-0-----------------------------|
E|--------------------3-5--—5----3-------------------------------------------|

G|---------------------------------------------------------------------------|
D|---------------------------------------------------------------------------|
A|------------------------3--------5-5-5-6-5-3-0-----------------------------|
E|------3-5----3-5----3-5--—5----3-------------------------------------------|
                             {Repeat 3 Times}

G|---------------------------------------------------------------------------|
D|---------------------------------------------------------------------------|
A|------3-3-3-3-3-3-3-3-5-5-5-5-5-5-5-5--------------------------------------|
E|---------------------------------------------------------------------------|
              {Repeat After Drummer Clicks Sticks Together}				Chorus
G|---------------------------------------------------------------------------|
D|---------------------------------------------------------------------------|
A|---------------------3-3--------5-5---5---5-5-5-5-5-3----------------------|
E|------5-5---5---3-5--------3-----------------------------------------------|
                             {Repeat 4 Times}

				Verse
G|---------------------------------------------------------------------------|
D|---------------------------------------------------------------------------|
A|-----------------------------------3/5-5-5-5-5-3-0-------------------------|
E|------5---3---2---0-3-5---3---2--------------------------------------------|

				Chorus
G|---------------------------------------------------------------------------|
D|---------------------------------------------------------------------------|
A|---------------------3-3--------5-5---5---5-5-5-5-5-3----------------------|
E|------5-5---5---3-5--------3-----------------------------------------------|
                             {Repeat 4 Times}

==============================================================================
 KEY:
   /  slide up
==============================================================================
Добавлено: 16.05.2012
Другие материалы по этой песне:
  • Аккорды и текст

Страница создана 16.05.2012
http://primanota.ru/colour/devils-got-a-holda-me-chords.htm
Привет, Гость.
Предлагаем пройти революционный курс по гитаре.
Подарок от PrimaNota.Ru, забирай!