PrimaNota.ru - самый крупный в мире бесплатный архив песенных текстов, аккордов, табулатур и нот


Colour Of Fire - The Exile - текст песни, таба, видео

Регистрация Запомнить меня
Войти через:  Facebook Google Twitter Vk Yandex Mail.ru

Colour Of Fire - The Exile - текст песни, таба, видео

Печатать
Просмотров: 101


-------------------------------------------------------------------------------
			     COLOUR OF FIRE - The Exile
-------------------------------------------------------------------------------
Album - Pearl Necklace
Date:28/07/05
Tabbed by:anitaoomeer@hotmail.com

Tuning: e B G D A C#
it doesnt work with any other tuning

feel free to email me with corrections(any alternatives on chorus...)/comments


| /   slide up
|    slide down
| h   hammer-on
| p   pull-off
| ~   vibrato
| pm  palm mute
| r   let ring
| x   Mute note

Intro

e |---------------------------------------------------------------------------|
B |---------------------------------------------------------------------------|
G |---------------------------------------------------------------------------|
D |-6-6-6--8--3-3-3-3-3-3-3---3---6-6--5--3-3-3-3-3-3-3-3---------------------|
A |-6-6-6--8--4-4-4-4-4-4-4---3---6-6--5--4-4-4-4-4-4-4-4---------------------|
C#|-7-7-7--9--0-0-0-0-0-0-0---4---7-7--6--0-0-0-0-0-0-0-0---------------------|
            								(repeat)


e |---------------------------------------------------------------------------|
B |---------------------------------------------------------------------------|
G |-5-5-5-6--x-x--x--x-x--x------5--53--x-x--x--x-x--x-----------------------|
D |-5-5-5-6--6-6--6--6-6--6---6----------6-6--6--6-6--6-----------------------|
A |-3-3-3-4--4-4--4--4-4--4--------------4-4--4--4-4--4-----------------------|
C#|-x-x-x-x--4-4--4--4-4--4--------------4-4--4--4-4--4-----------------------|
             pm   r  pm   r              pm   r  pm   r                (repeat)



Verse

e |---------------------------------------------------------------------------|
B |---------------------------------------------------------------------------|
G |-5-5-5-5-5-5-5-5-5-5-5-5-5-5-5-5-5-5-5-5--6-6-6-6-6-6-6-6-6-6-6-6--5-5-5-5-|
D |-5-5-5-5-5-5-5-5-5-5-5-5-5-5-5-5-5-5-5-5--6-6-6-6-6-6-6-6-6-6-6-6--x-x-x-x-|
A |-3-3-3-3-3-3-3-3-3-3-3-3-3-3-3-3-3-3-3-3--4-4-4-4-4-4-4-4-4-4-4-4--6-6-6-6-|
C#|-x-x-x-x-x-x-x-x-x-x-x-x-x-x-x-x-x-x-x-x--x-x-x-x-x-x-x-x-x-x-x-x--7-7-7-7-|
    The things you say may not be to my taste  the words of a veteran    now


e |---------------------------------------------------------------------------|
B |---------------------------------------------------------------------------|
G |-5-5-5-5-5-----------------------------------------------------------------|
D |-x-x-x-x-x--3-3-3-3-3-3--3-3-3-3-3-3-3-3-----------------------------------|
A |-6-6-6-6-6--3-3-3-3-3-3--4-4-4-4-4-4-4-4-----------------------------------|
C#|-7-7-7-7-7--4-4-4-4-4-4--0-0-0-0-0-0-0-0-----------------------------------|
   say to me      you're included                                      (repeat)



Pre Chorus

e |---------------------------------------------------------------------------|
B |---------------------------------------------------------------------------|
G |---------------------------------------------------------------------------|
D |-------------------------------------------3-3--3--3-3--3--3-3--3--3-3--3--|
A |---1--3---1--3---1--3---1--3---1--3---1--3-4-4--4--4-4--4--4-4--4--4-4--4--|
C#|-4------4------4------4------4------4------0-0--0--0-0--0--0-0--0--0-0--0--|
                       I've never come..      trouble
					      pm   r  pm   r  pm   r  pm   r


e|----------------------------------------------------------------------------|
B|----------------------------------------------------------------------------|
G|----------------------------------------------------------------------------|
D|------3--5---3--5---3--5---3--5---3--5------5--6---5--6---5--6---5-6-8-6-5--|
A|-4--3------3------3------3------3------3--4------4------4------4----------6-|
E|----------------------------------------------------------------------------|
                    I'm just  exercising  my right


Chorus

e|----------------------------------------------------------------------------|
B|----------------------------------------------------------------------------|
G|-8-8-8-8-8-8-8-8-8--5-5-5-5-5-5-5-5-5-5-5-5-5-5-5-5-5-5-5-5-5-5-5-5-5-------|
D|-8-8-8-8-8-8-8-8-8--5-5-5-5-5-5-5-5-5-5-5-5-5-5-5-5-5-5-5-5-5-5-5-5-5-------|
A|-6-6-6-6-6-6-6-6-6--3-3-3-3-3-3-3-3-3-3-3-3-3-3-3-3-3-3-3-3-3-3-3-3-3-------|
E|-x-x-x-x-x-x-x-x-x--x-x-x-x-x-x-x-x-x-x-x-x-x-x-x-x-x-x-x-x-x-x-x-x-x-------|
      my right to an  explanation       i've     discarded      the


e |--------------------------------------------------x-x-x-x-x-x-x-x-x-x-x-x--|
B |--------------------------------------------------x-x-x-x-x-x-x-x-x-x-x-x--|
G |-3-3-3-3-3-3-3-3-3-3-3-3-3-3-3-3-3-3-3-3-3-3-3-3--1-1-1-1-1-1-1-1-1-1-1-1--|
D |-3-3-3-3-3-3-3-3-3-3-3-3-3-3-3-3-3-3-3-3-3-3-3-3--3-3-3-3-3-3-3-3-3-3-3-3--|
A |-1-1-1-1-1-1-1-1-1-1-1-1-1-1-1-1-1-1-1-1-1-1-1-1--4-4-4-4-4-4-4-4-4-4-4-4--|
C#|-x-x-x-x-x-x-x-x-x-x-x-x-x-x-x-x-x-x-x-x-x-x-x-x--0-0-0-0-0-0-0-0-0-0-0-0--|
   one    i    was     given                     it carried too little weight


e |---------------------------------------------------------------------------|
B |---------------------------------------------------------------------------|
G |---------------------------------------------------------------------------|
D |-----------------------------3--3------------------------------------------|
A |--------4--4---3--3---3--3---3--3------------------------------------------|
C#|-0--0---0--0---2--2---3--3---4--4------------------------------------------|


(back to 1st line of intro)



Middle 8

e |---------------------------------------------------------------------------|
B |---------------------------------------------------------------------------|
G |---------------------------------------------------------------------------|
D |--3--3--3-----------3--3--3------------------------------------------------|
A |--3--3--3-----------4--4--4----------------4--4---3--3---3--3--------------|
C#|--4--4--4-----------0--0--0---------0--0---0--0---2--2---3--3--------------|
           pm_ _ _ _   r  r  pm_ _ _ _ _ _ _ _ _  _ _ _ _ _ _ _        (repeat)

e |------------------------------------------------------------------------------|
B |------------------------------------------------------------------------------|
G |------------------------------------------------------------------------------|
D |3-3-3-3--10-10--11-11--3-3-3-3--10-10--11-11--3-3-3-3--10-10--11-11--3-3-3-3--|
A |3-3-3-3--10-10--11-11--3-3-3-3--10-10--11-11--4-4-4-4--10-10--11-11--4-4-4-4--|
C#|4-4-4-4--11-11--12-12--4-4-4-4--11-11--12-12--0-0-0-0--11-11--12-12--0-0-0-0--|


e |---------------------------------------------------------------------------|
B |---------------------------------------------------------------------------|
G |---------------------------------------------------------------------------|
D |-----------------------------3--3------------------------------------------|
A |--------4--4---3--3---3--3---3--3------------------------------------------|
C#|-0--0---0--0---2--2---3--3---4--4------------------------------------------|

===============================================================================




Добавлено: 23.12.2013
Другие материалы по этой песне:

Страница создана 03.03.2012
http://primanota.ru/colour-of-fire/the-exile-chords.htm
Привет, Гость.
Предлагаем пройти революционный курс по гитаре.
Подарок от PrimaNota.Ru, забирай!