PrimaNota.ru - самый крупный в мире бесплатный архив песенных текстов, аккордов, табулатур и нот


Colour Of Fire - Robot Rock - текст песни, таба, видео

Регистрация Запомнить меня
Войти через:  Facebook Google Twitter Vk Yandex Mail.ru

Colour Of Fire - Robot Rock - текст песни, таба, видео

Печатать
Просмотров: 79


-------------------------------------------------------------------------------
			     COLOUR OF FIRE - Robot Rock
-------------------------------------------------------------------------------
Album: Pearl Necklace
Tabbed by:anita5257
Email: anitaoomeer@hotmail.com

Tuning: C# A D G B e

| h  hammer-on
| p  pull-off
| x  Mute note
| b  bend
| pm palm mute
| lr let ring
| *  rake
| /  slide up
|   slide down


Intro

e |---------------------------------------------------------------------------|
B |---------------------------------------------------------------------------|
G |---------------------------------------------------------------------------|
D |--------------2----4----------4----5----------5----7---------7-------------|
A |----4----4----2----4-----4----4----5----------5----7---------7-------------|
C#|----0----0----3----5-----0----5----6-----0----6----8-----0---8-------------|


e |---------------------------------------------------------------------------|
B |---------------------------------------------------------------------------|
G |---------------------------------------------------------------------------|
D |--------------2---------4------------------------2-------------------------|
A |--------------2---------4---------4----5---------2-------------------------|
C#|----0----0----3----0----5----0--------------0----3-------------------------|
                                                                        repeat


Verse

e |---------------------------------------------------------------------------|
B |---------------------------------------------------------------------------|
G |---------------------------------------------------------------------------|
D |-2-2-2-2-2-2-2-2-2-2-2-2--4-4--2-2-2-2-2-2-2-2-2-2-2-2--------2-----4------|
A |-2-2-2-2-2-2-2-2-2-2-2-2--4-4--2-2-2-2-2-2-2-2-2-2-2-2--------2-----4------|
C#|-3-3-3-3-3-3-3-3-3-3-3-3--5-5--3-3-3-3-3-3-3-3-3-3-3-3--0--0--3--0--5--0---|
    pm_ _ _ _ _ _ _ _ _ _ _ _ _ _ _ _ _ _ _ _ _            lr


e |---------------------------------------------------------------------------|
B |---------------------------------------------------------------------------|
G |---------------------------------------------------------------------------|
D |---------------2------------2-------4-------------------2-------2----------|
A |---4---5-------2------------2-------4---------4---5-----2-------2----------|
C#|-----------0---3----0---0---3---0---5---0-----------0---3---0---3----------|
                                                                         repeat


e |---------------------------------------------------------------------------|
B |---------------------------------------------------------------------------|
G |---------------------------------------------------------------------------|
D |-2-2-2-2-2-2-2-2-2-2-2-2--4-4-4-4-4-4-4-4-4-4-4-4--5-5-5-5-5-5-5-5-5-5-5-5-|
A |-2-2-2-2-2-2-2-2-2-2-2-2--4-4-4-4-4-4-4-4-4-4-4-4--5-5-5-5-5-5-5-5-5-5-5-5-|
C#|-3-3-3-3-3-3-3-3-3-3-3-3--5-5-5-5-5-5-5-5-5-5-5-5--6-6-6-6-6-6-6-6-6-6-6-6-|
    pm_ _ _ _ _ _ _ _


e |---------------------------------------------------------------------------|
B |---------------------------------------------------------------------------|
G |---------------------------------------------------------------------------|
D |---------------------------------------------------------------------------|
A |---4---------------4-------------------------------4-----------------------|
C#|-------5---4---0-------5---4---0---4---5---4---5-------5---4---------------|



Pre Chorus

e |---------------------------------------------------------------------------|
B |---------------------------------------------------------------------------|
G |-6--6--6--6--------6--6--6--9--9--9--6--6--6--6--------6--6--6--9--9--9----|
D |-6--6--6--4--h--6--4--6--6--9--9--9--6--6--6--4--h--6--4--6--6--9--9--9----|
A |-4--4--4--4--------4--4--4--7--7--7--4--4--4--4--------4--4--4--7--7--7----|
C#|-0--0--0--0--------0--0--0--x--x--x--0--0--0--0--------0--0--0--x--x--x----|
                                                                         repeat


Добавлено: 21.02.2014
Другие материалы по этой песне:
  • Аккорды и текст

Страница создана 17.06.2012
http://primanota.ru/colour-of-fire/robot-rock-chords.htm
Привет, Гость.
Предлагаем пройти революционный курс по гитаре.
Подарок от PrimaNota.Ru, забирай!