PrimaNota.ru - самый крупный в мире бесплатный архив песенных текстов, аккордов, табулатур и нот


Colour Of Fire - Images Of You - текст песни, таба, видео

Регистрация Запомнить меня
Войти через:  Facebook Google Twitter Vk Yandex Mail.ru

Colour Of Fire - Images Of You - текст песни, таба, видео

Печатать
Просмотров: 81


-------------------------------------------------------------------------------
			     COLOUR OF FIRE - Images of you
-------------------------------------------------------------------------------
Email:anitaoomeer@hotmail.com
Album: Pearl Necklace
Tuning: C# A D G B e

two guitar parts 
timings for guitar2 riffs are for the album version.
you really need to play this with a drummer- even if its a hobo with a pair of bongos
cuz it'll sound twice as fantasmic. feel free to email me with comments/alternatives...



Gtr 1  (this runs throughout, apart from middle 8..)
e |---------------------------------------------------------------------------|
B |---------------------------------------------------------------------------|
G |-------------2---4---2---1-----------1-------------------------------------|
D |--------2------------------------2-----------2---1-------------------------|
A |---0-------------------------------------2---------------------------------|
C#|-----------------------------0---------------------------------------------|



Gtr 2
Riff 1 through verse [1.35]
e |---------------------------------------------------------------------------|
B |---------------------------------------------------------------------------|
G |-------9-------8----------13---------11------------------------------------|
D |---7-------7--------11----------9------------------------------------------|
A |---------------------------------------------------------------------------|
C#|---------------------------------------------------------------------------|


Gtr 2
Riff 2 through verse when lyrics start again [1.47]
e |-----------------12----------------------------12--------------------------|
B |---14---------------------------14----------------------------14-----------|
G |-------11---13--------11---13--------11---13--------11---13----------------|
D |---------------------------------------------------------------------------|
A |---------------------------------------------------------------------------|
C#|---------------------------------------------------------------------------|




Middle 8

Gtr 1
e |---------------------------------------------------------------------------|
B |---------------------------------------------------------------------------|
G |---------------------------------------------------------------------------|
D |-2-2-2-2-2-2--4-4-4--5-5-5--2-2-2-2-2-2-2-2-2-2-2-2------------------------|
A |-2-2-2-2-2-2--4-4-4--5-5-5--4-4-4-4-4-4-4-4-4-4-4-4------------------------|
C#|-3-3-3-3-3-3--5-5-5--6-6-6--0-0-0-0-0-0-0-0-0-0-0-0------------------------|
                                  [^gtr 2 here]                      repeat x3                   Gtr 2
e |--------------------------------------------------------7------------------|
B |-----------------------------------------5------5--4-----------------------|
G |---------------------------------1-------------------4---------------------|
D |------------------------------------4--2---2-2-----------------------------|
A |-------------------------------------------4-4-----------------------------|
C#|-------------------------------------------0-0-----------------------------|
                                                                     repeat x3



Gtr 1
e |---------------------------------------------------------------------------|
B |---------------------------------------------------------------------------|
G |---------------------------------------------------------------------------|
D |-2-2-2-2-2-2-4-4-4-6-6-6-7-7-7-7-7-7-2-2-2-6-6-6-7-7-7-7-7-7-2-2-2-6-6-6---|
A |-2-2-2-2-2-2-4-4-4-6-6-6-7-7-7-7-7-7-4-4-4-6-6-6-7-7-7-7-7-7-4-4-4-6-6-6---|
C#|-3-3-3-3-3-3-5-5-5-7-7-7-8-8-8-8-8-8-0-0-0-7-7-7-8-8-8-8-8-8-0-0-0-7-7-7---|
                              [^ gtr 2 here]
Gtr 2
e |---------------------------------------------------------------------------|
B |---------------------------------------------------------------------------|
G |-------------2---4---2---1-----------1-------------------------------------|
D |--------2------------------------2-----------2---1-------------------------|
A |---0-------------------------------------2---------------------------------|
C#|-----------------------------0---------------------------------------------|




Outro

Gtr 1
e |---------------------------------------------------------------------------|
B |---------------------------------------------------------------------------|
G |-------------2---4---2---1-----------1-------------------------------------|
D |--------2------------------------2-----------2---1-------------------------|
A |---0-------------------------------------2---------------------------------|
C#|-----------------------------0---------------------------------------------|

Gtr 2
e |--------------------------------------|-------------------------------------|
B |----12--12----12--12----9--9----7--7--|-------------------------------------|
G |--9---------9-------------------------|-----9-------8-------9-------8-------|
D |---------------------11------9--------|-------9-------9-------9-------9-----|
A |--------------------------------------|--11------11------11------11---------|
C#|--------------------------------------|-------------------------------------|
                                  repeat




===============================================================================




Добавлено: 10.01.2014
Вам также может быть интересно:
Другие материалы по этой песне:
  • Аккорды и текст

Страница создана 08.06.2012
http://primanota.ru/colour-of-fire/images-of-you-chords.htm
Привет, Гость.
Предлагаем пройти революционный курс по гитаре.
Подарок от PrimaNota.Ru, забирай!