PrimaNota.ru - самый крупный в мире бесплатный архив песенных текстов, аккордов, табулатур и нот


Colour Haze - Outside - таба, видео

Регистрация Запомнить меня
Войти через:  Facebook Google Twitter Vk Yandex Mail.ru

Colour Haze - Outside - таба, видео

Печатать
Просмотров: 35
-------------------------------------------------------------------------------
                             Outside - Colour Haze
-------------------------------------------------------------------------------
Tabbed by:Joe
E-mail:s5johage@uni-trier.de

Taken from the Album "Ewige Blumenkraft"
This is an easy one. I play it on a Drop D Acoustic guitar, there might be 
errors from the transcription. 

There are pretty much just 5 pattern, but I tabbed it with timeline, so you have
a tab in correct order.


Tuning: Drop C

Guitar starts around 0:40

D|-------------------------------------------------------------------------------|
A|-------------------------------------------------------------------------------|
F|-------------------------------------------------------------------------------|  Repeat 2x
C|---------------12-------------------12----------------12------------------12---|
G|------------------12-------------------12----------------12------------------12|
C|--0-0-0-0---0---------0-0-0-0---0---------0-0-0-0---0--------0-0-0-0---0-------|
 PM------------|      PM-----------|     PM------------|     PM-----------|

Around 0:58

D|-------------------------------------------------------------------------------|
A|-------------------------------------------------------------------------------|
F|-------14-------------------------------------------------------------10-------|
C|----------15----------14-12-14-14b15rp12-10-12--12-14-14b15rp12-10-12----10----|  Repeat 2x
G|-------------14-14/15-------------------------------------------------------(12|   (12 only 
C|-12-12-------------------------------------------------------------------------|  on second run
 PM-----|

Around 1:20

D|-------------------------------------------------------------------------------|
A|-------------------------------------------------------------------------------|
F|-------------------------------------------------------------------------------|  Repeat 2x
C|---------------12-------------------12----------------12------------------12---|
G|------------------12-------------------12----------------12------------------12|
C|--0-0-0-0---0---------0-0-0-0---0---------0-0-0-0---0--------0-0-0-0---0-------|
 PM------------|      PM-----------|     PM------------|     PM-----------|

Around 1:44


D|-------------------------------------------------------------------------------|
A|-------------------------------------------------------------------------------|
F|-------14-------------------------------------------------------------10-------|
C|----------15----------14-12-14-14b15rp12-10-12--12-14-14b15rp12-10-12----10----|  Repeat 2x
G|-------------14-14/15-------------------------------------------------------(12|   (12 only 
C|-12-12-------------------------------------------------------------------------|  on second run
 PM-----|

Around 2:05

D|-------------------------------------------------------------------------------|
A|-------------------------------------------------------------------------------|
F|--------14-12h14/17--------------17-------------17-----------------------------| Repeat 2x
C|--------------------17--------------17-------------17--------------------------| 
G|-----------------------15-15-15--------15-15-15-------15-15-15-15h17-----------|
C|-12-12-------------------------------------------------------------------------|
 PM-----|

Around 2:28 and throughout the Lyrics 

D|-----------------------------------------------------------------------------|
A|-----------------------------------------------------------------------------|
F|-------------14------------------14-----------------14-----------------14----| Repeat often
C|-0-0-0-0---0----15--0-0-0-0---0-----15--0-0-0-0---0----15--0-0-0-0---0----15-|
G|-0-0-0-0---0--------0-0-0-0---0---------0-0-0-0---0--------0-0-0-0---0-------|
C|-0-0-0-0---0--------0-0-0-0---0---------0-0-0-0---0--------0-0-0-0---0-------|

Around 3:25

D|-------------------------------------------------------------------------------|
A|-------------------------------------------------------------------------------|
F|-------14-------------------------------------------------------------10-------|
C|----------15----------14-12-14-14b15rp12-10-12--12-14-14b15rp12-10-12----10----|  Repeat 2x
G|-------------14-14/15-------------------------------------------------------(12|   (12 only 
C|-12-12-------------------------------------------------------------------------|  on second run
 PM-----|

Around 3:48 Second Lyrics

D|-----------------------------------------------------------------------------|
A|-----------------------------------------------------------------------------|
F|-------------14------------------14-----------------14-----------------14----| Repeat 2x
C|-0-0-0-0---0----15--0-0-0-0---0-----15--0-0-0-0---0----15--0-0-0-0---0----15-|
G|-0-0-0-0---0--------0-0-0-0---0---------0-0-0-0---0--------0-0-0-0---0-------|
C|-0-0-0-0---0--------0-0-0-0---0---------0-0-0-0---0--------0-0-0-0---0-------|

Around 4:11

D|-------------------------------------------------------------------------------|
A|-------------------------------------------------------------------------------|
F|-------14-------------------------------------------------------------10-------|
C|----------15----------14-12-14-14b15rp12-10-12--12-14-14b15rp12-10-12----10----|  Repeat 2x
G|-------------14-14/15-------------------------------------------------------(12|   (12 only 
C|-12-12-------------------------------------------------------------------------|  on second run
 PM-----|

Around 4:33

D|-------------------------------------------------------------------------------|
A|-------------------------------------------------------------------------------|
F|--------14-12h14/17--------------17-------------17-----------------------------| Repeat 2x
C|--------------------17--------------17-------------17--------------------------| 
G|-----------------------15-15-15--------15-15-15-------15-15-15-15h17-----------|
C|-12-12-------------------------------------------------------------------------|
 PM-----|

Around 4:55 Chords until the end. Listen to the Song for correct strumming. There are some slight
variations like adding another 5th on the F String.

D|-------------------------------------------------------------------------------------------|
A|-------------------------------------------------------------------------------------------|
F|-------------------------------------------------------------------------------------------|
C|--12-12-12-X-12-12-12-X-12-12-12-X-12-12-12-X-14-14-14-X-14-14-14-X-14-14-14-X-14-14-14-X--|
G|--12-12-12-X-12-12-12-X-12-12-12-X-12-12-12-X-14-14-14-X-14-14-14-X-14-14-14-X-14-14-14-X--|--|
C|--12-12-12-X-12-12-12-X-12-12-12-X-12-12-12-X-14-14-14-X-14-14-14-X-14-14-14-X-14-14-14-X--|  |
                                                                                                |
                                                                                           Repeat while
                                                                                        getting more intense
                                                                                                |
                                                                                                |
D|-------------------------------------------------------------------------------------------|  |
A|-------------------------------------------------------------------------------------------|--|
F|-------------------------------------------------------------------------------------------|
C|--15-15-15-X-15-15-15-X-15-15-15-X-15-15-15-X-17-17-17-X-17-17-17-X-17-17-17-X-17-17-17-X--|
G|--15-15-15-X-15-15-15-X-15-15-15-X-15-15-15-X-17-17-17-X-17-17-17-X-17-17-17-X-17-17-17-X--|
C|--15-15-15-X-15-15-15-X-15-15-15-X-15-15-15-X-17-17-17-X-17-17-17-X-17-17-17-X-17-17-17-X--|




************************************

| /   slide up
| \   slide down
| h   hammer-on
| p   pull-off
| ~   vibrato
| +   harmonic
| x   Mute note
| b   Bend
| pb  Pre-bend
| br  Bend release
| pbr Pre-bend release
| brb Bend release bend

************************************
Добавлено: 15.06.2016
Другие материалы по этой песне:
  • Аккорды и текст

Страница создана 15.06.2016
http://primanota.ru/colour-haze/outside-chords.htm
Привет, Гость.
Предлагаем пройти революционный курс по гитаре.
Подарок от PrimaNota.Ru, забирай!