PrimaNota.ru - самый крупный в мире бесплатный архив песенных текстов, аккордов, табулатур и нот


Colour Haze - Antenna - таба, видео

Регистрация Запомнить меня
Войти через:  Facebook Google Twitter Vk Yandex Mail.ru

Colour Haze - Antenna - таба, видео

Печатать
Просмотров: 75
-------------------------------------------------------------------------------
                             Antenna - Colour Haze
-------------------------------------------------------------------------------
Tabbed by: Meuwh

Tuning: drop C
C-G-C-F-A-D

-------------------------------------------------------------------------------
This song is for 95% correct.
If you have any corrections, please leave a comment below.
Any suggestions for another Colour Haze song ? Comment below


Thanks.
-------------------------------------------------------------------------------


0:00
e|---------------------------------------------------------------------------|
B|------13-------------------------------------------------------------------|
G|-------------12----14-----10-----12-------------12--10---------------------|
D|-0-12-----0------0-----0------0-------10h12-12----------10h12-12-----------|
A|---------------------------------------------------------------------------|
E|---------------------------------------------------------------------------|
                                          1:07
e|---------------------------------------------------------------------------|
B|---------------------------------------------------------------------------|
G|---------------------------------------------------------------------------|
D|--10-----------------------------------------------------------------------|
A|------12-10h12-12-12-------------------------------------------------------|
E|---------------------------------------------------------------------------|


repeat 6 times,
at the 5th time, drums fill in, volume swells

1:08
e|---------------------------------------------------------------------------|
B|--------13-13 13/15--------------------------------------------------------|
G|---------------------14-12-12h14-12-10----10-------------------------------|
D|--0-12---------------------------------12----------------------------------|
A|---------------------------------------------------------------------------|
E|---------------------------------------------------------------------------|

repeat this until 1:27
e|---------------------------------------------------------------------------|
B|---------------------------------------------------------------------------|
G|-14b15-12-14-10-12----------10------14b15-12-14-10-12-9-9h10-9-------------|
D|-------------------10-10h12----12------------------------------10-10/12----|
A|---------------------------------------------------------------------------|
E|---------------------------------------------------------------------------|



1:28
e|---------------------------------------------------------------------------|
B|---------------------------------------------------------------------------|
G|---------------------------------------------------------------------------|
D|-12-12-12-12-12-12--10-10-10-10-10-10-10--14-14-14-14-14-14-14-------------|
A|-0-----0-----0------0-----0-----0-----0------0-----0-----0-----------------|
E|---------------------------------------------------------------------------|

e|---------------------------------------------------------------------------|
B|---------------------------------------------------------------------------|
G|---------------------------------------------------------------------------|
D|-12-12-12-12-12-12---------------------------------------------------------|
A|-0-----0-----0-------------------------------------------------------------|
E|---------------------------------------------------------------------------|

e|---------------------------------------------------------------------------|
B|---------------------------------------------------------------------------|
G|---------------------------------------------------------------------------|
D|-12-12-12-12-12-12--10-10-10-10-10-10-10--14-14-14-14-14-14-14-------------|
A|-0-----0-----0------0-----0-----0-----0------0-----0-----0-----------------|
E|---------------------------------------------------------------------------|

e|---------------------------------------------------------------------------|
B|----15-------------15------------------------------------------------------|
G|----14-------------14------------------------------------------------------|
D|-12----12-12-12-12---------------------------------------------------------|
A|-0-------------------------------------------------------------------------|
E|---------------------------------------------------------------------------|


                                                                                         
                            x2
e|---------------------------------------|-----------------------------------|
B|--18-18-18-18-18-18--17-17-17-17-17-17-|-15-15-15-15-15-15-----------------|
G|--17-17-17-17-17-17--16-16-16-16-16-16-|-14-14-14-14-14-14-----------------|
D|---------------------------------------|-----------------------------------|
A|---------------------------------------|-----------------------------------|
E|---------------------------------------|-----------------------------------|

repeat this epic riff till 3:12


3:13 - the singing part
e|---------------------------------------------------------------------------|
B|---------------------------------------------------------------------------|
G|---------------------------------------------------------------------------|
D|-15-15-15-15-15--14-14-14--15p14--12h14-12---------------------------------|
A|-15-15-15-15-15--14-14-14--15p14--12h14-12---------------------------------|
E|-15-15-15-15-15--14-14-14--15p14--12h14-12---------------------------------|


e|---------------------------------------------------------------------------|
B|-15-15-15-15-15-15---15-15-15-15-15-15-------------------------------------|
G|-14-14-14-14-14-14---14-14-14-14-14-14-------------------------------------|
D|-12-12-12-12-12-12---12-12-12-12-12-12-------------------------------------|
A|-12-12-12-12-12-12---12-12-12-12-12-12-------------------------------------|
E|-12-12-12-12-12-12---12-12-12-12-12-12-------------------------------------|

repeat till 3:55

e|---------------------------------------------------------------------------|
B|------13-------------------------------------------------------------------|
G|-------------12----14-----10-----12-------------12--10---------------------|
D|-0-12-----0------0-----0------0-------10h12-12----------10h12-12-----------|
A|---------------------------------------------------------------------------|
E|---------------------------------------------------------------------------|
                                          1:07
e|---------------------------------------------------------------------------|
B|---------------------------------------------------------------------------|
G|---------------------------------------------------------------------------|
D|--10-----------------------------------------------------------------------|
A|------12-10h12-12-12-------------------------------------------------------|
E|---------------------------------------------------------------------------|

repeat 6 times,
at the 5th time, drums fill in, volume swells

e|---------------------------------------------------------------------------|
B|--------13-13 13/15--------------------------------------------------------|
G|---------------------14-12-12h14-12-10----10-------------------------------|
D|--0-12---------------------------------12----------------------------------|
A|---------------------------------------------------------------------------|
E|---------------------------------------------------------------------------|

e|---------------------------------------------------------------------------|
B|---------------------------------------------------------------------------|
G|-14b15-12-14-10-12----------10------14b15-12-14-10-12-9-9h10-9-------------|
D|-------------------10-10h12----12------------------------------10-10/12----|
A|---------------------------------------------------------------------------|
E|---------------------------------------------------------------------------|

e|---------------------------------------------------------------------------|
B|---------------------------------------------------------------------------|
G|-14b15-12-14-10-12----------10------14b15-12-14-10-12-9-9h10-9-------------|
D|-------------------10-10h12----12------------------------------10-10/12----|
A|---------------------------------------------------------------------------|
E|---------------------------------------------------------------------------|

e|---------------------------------------------------------------------------|
B|---------------------------------------------------------------------------|
G|-14b15-12-14-10-12----------10------14b15-12-14-10-12-9-9h10-9-------------|
D|-------------------10-10h12----12------------------------------10-10/12----|
A|---------------------------------------------------------------------------|
E|---------------------------------------------------------------------------|

e|---------------------------------------------------------------------------|
B|---------------------------------------------------------------------------|
G|---------------------------------------------------------------------------|
D|-12-12-12-12-12-12--10-10-10-10-10-10-10--14-14-14-14-14-14-14-------------|
A|-0-----0-----0------0-----0-----0-----0------0-----0-----0-----------------|
E|---------------------------------------------------------------------------|

e|---------------------------------------------------------------------------|
B|---------------------------------------------------------------------------|
G|---------------------------------------------------------------------------|
D|-12-12-12-12-12-12---------------------------------------------------------|
A|-0-----0-----0-------------------------------------------------------------|
E|---------------------------------------------------------------------------|

e|---------------------------------------------------------------------------|
B|---------------------------------------------------------------------------|
G|---------------------------------------------------------------------------|
D|-12-12-12-12-12-12--10-10-10-10-10-10-10--14-14-14-14-14-14-14-------------|
A|-0-----0-----0------0-----0-----0-----0------0-----0-----0-----------------|
E|---------------------------------------------------------------------------|

e|---------------------------------------------------------------------------|
B|----15-------------15------------------------------------------------------|
G|----14-------------14------------------------------------------------------|
D|-12----12-12-12-12---------------------------------------------------------|
A|-0-------------------------------------------------------------------------|
E|---------------------------------------------------------------------------|

6:03                                                                                     
                            x2
e|---------------------------------------|-----------------------------------|
B|--18-18-18-18-18-18--17-17-17-17-17-17-|-15-15-15-15-15-15-----------------|
G|--17-17-17-17-17-17--16-16-16-16-16-16-|-14-14-14-14-14-14-----------------|
D|---------------------------------------|-----------------------------------|
A|---------------------------------------|-----------------------------------|
E|---------------------------------------|-----------------------------------|

repeat till 7:05


7:06 - the singing part
e|---------------------------------------------------------------------------|
B|---------------------------------------------------------------------------|
G|---------------------------------------------------------------------------|
D|-15-15-15-15-15--14-14-14--15p14--12h14-12---------------------------------|
A|-15-15-15-15-15--14-14-14--15p14--12h14-12---------------------------------|
E|-15-15-15-15-15--14-14-14--15p14--12h14-12---------------------------------|


e|---------------------------------------------------------------------------|
B|-15-15-15-15-15-15---15-15-15-15-15-15-------------------------------------|
G|-14-14-14-14-14-14---14-14-14-14-14-14-------------------------------------|
D|-12-12-12-12-12-12---12-12-12-12-12-12-------------------------------------|
A|-12-12-12-12-12-12---12-12-12-12-12-12-------------------------------------|
E|-12-12-12-12-12-12---12-12-12-12-12-12-------------------------------------|

repeat till 7:47


Volume on 11 !!!! Epic bass part
e|---------------------------------------------------------------------------|
B|------13-------------------------------------------------------------------|
G|-------------12----14-----10-----12-------------12--10---------------------|
D|-0-12-----0------0-----0------0-------10h12-12----------10h12-12-----------|
A|---------------------------------------------------------------------------|
E|---------------------------------------------------------------------------|

e|---------------------------------------------------------------------------|
B|---------------------------------------------------------------------------|
G|---------------------------------------------------------------------------|
D|--10-----------------------------------------------------------------------|
A|------12-10h12-12-12-------------------------------------------------------|
E|---------------------------------------------------------------------------|

Repeat till 8:51

Play around with this pattern
e|---------------------------------------------------------------------------|
B|--------13--------13-------------------------------------------------------|
G|------------14h17----12-12h14-12h14-10-12----------------------------------|
D|--0-12---------------------------------------------------------------------|
A|---------------------------------------------------------------------------|
E|---------------------------------------------------------------------------|

e|---------------------------------------------------------------------------|
B|---------------------------------------------------------------------------|
G|-14b15-12-14-10-12----------10------14b15-12-14-10-12-9-9h10-9-------------|
D|-------------------10-10h12----12------------------------------10-10/12----|
A|---------------------------------------------------------------------------|
E|---------------------------------------------------------------------------|

final 2 notes (9:09)
both harmonics
   +   +
e|---------------------------------------------------------------------------|
B|-----13--------------------------------------------------------------------|
G|-----12--------------------------------------------------------------------|
D|-12------------------------------------------------------------------------|
A|---------------------------------------------------------------------------|
E|---------------------------------------------------------------------------|





************************************

| /   slide up
| \   slide down
| h   hammer-on
| p   pull-off
| ~   vibrato
| +   harmonic
| x   Mute note
| b   Bend
| pb  Pre-bend
| br  Bend release
| pbr Pre-bend release
| brb Bend release bend

************************************
Добавлено: 07.10.2013
Другие материалы по этой песне:
  • Аккорды и текст

Страница создана 07.10.2013
http://primanota.ru/colour-haze/antenna-chords.htm
Привет, Гость.
Предлагаем пройти революционный курс по гитаре.
Подарок от PrimaNota.Ru, забирай!