PrimaNota.ru - самый крупный в мире бесплатный архив песенных текстов, аккордов, табулатур и нот


Color Me Badd - Closer To Heaven - таба, видео

Регистрация Запомнить меня
Войти через:  Facebook Google Twitter Vk Yandex Mail.ru

Color Me Badd - Closer To Heaven - таба, видео

Печатать
Просмотров: 99
                               Guitar Tablature for
                                'Closer To Heaven'
                                 by Color Me Badd

Album Info:
-------------------------------------
 Song:    Closer To Heaven
 Artist:  Color Me Badd
 Album:   Time And Chance
 Version: Album version
 Wea/Warner Brothers; ASIN: B000002L1N
-------------------------------------

 Transcribed by: Robert Seder [robertcseder@yahoo.com]

This is played with a 6-string electric and 6-string acoustic guitar with
standard (EADGBE) tuning. This tablature is my own work, it may be distributed
freely.

Guitar Setup:
Acoustic - None.
Electric - I just used a clean sound with the neck pickup, this isn't
a particularly unique sound.

Playing:
Listening to the song, it's pretty obvious the only electric parts are
the passing bass notes between the chords in the chorus. G - I've
included them together. One can play this with one acoustic guitar. If this
is played on an acoustic, I play with thumb-bass, and the remainging fingers
to pluck the rest of the chord. I've sort of tabbed it that way too. Below
are the general chords - feel free to improvise (or match the song).

And now - onto the song...
-----------

Intro/Chorus

   Emaj9                    C#7sus4 C#7    F#m7      B7sus4 B7 
E|------------2-----------------------------------------------
B|------------4---------------7--6-----------2----------5--4--
G|------------4---------------4--4-----------2----------2--2--
D|----2h4p2---2---------------6--6-----------2----------4--4--
A|-2h4--------2----------2--4-------------------(2)/4\2-------
E|----------0----0-(2)/4-----------(4)\2-0-2------------------


Verse (acoustic)

   Emaj9 C#7    F#m7(add9) B7
E|--2-------------4--2----------------------------------------
B|--4-----7--6----2--2-----5--4-------------------------------
G|--4-----4--4----2--2-----2--2-------------------------------
D|--------6--6-------------4--4-------------------------------
A|------4----------------2------------------------------------
E|-0------------2---------------------------------------------


Bridge (2:07)                    

   Amaj7  G#m7   EMaj7  C#7      Amaj7 G#m7 C#m7 G#7 G#7/C C#7 
E|---0--------2------4----------|---0-------------------------
B|---2-2----2-2----4-4----7--6--|---2-2--4----5---4--4----7-6-
G|---1-1----2-2----4-4----4--4--|---1-1--4----4---5--5----4-4-
D|-----2----2------2------6--6--|-----2--4----6---4--6----6-6-
A|-0--------------------4-------|-0---------4--------3--4-----
E|--------2------0--------------|--------4-------4------------


Solo (2:30)
E|-------------7------------------------9-7-------------------
B|------9--10-----7--6--7-9-10-----9-10-----10-9h10p9--7------
G|--4/9-----------6--6------------x---------------------------
D|-------------------------------x----------------------------
A|------------------------------------------------------------
E|------------------------------------------------------------

E|-------0h4-5-/-7----12-11-12--12--12-12-12------7-10-9-7----
B|-----------5-/-7------------12--10--9--7--6---9-------------
G|------------------------------------------------------------
D|----6/9-----------------------------------------------------
A|------------------------------------------------------------
E|-0h4--------------------------------------------------------

E|------------------------------------------------------------
B|-10p9h10----10-------10--9-------9-7--7-7-7--5--4--5--------
G|----------------6--9-----------9------6-6-6--6--5--4--------
D|-----------------------------9------------------------------
A|------------------------------------------------------------
E|------------------------------------------------------------
     
Добавлено: 30.07.2013
Другие материалы по этой песне:
  • Аккорды и текст

Страница создана 30.07.2013
http://primanota.ru/color-me-badd/closer-to-heaven-chords.htm
Привет, Гость.
Предлагаем пройти революционный курс по гитаре.
Подарок от PrimaNota.Ru, забирай!