PrimaNota.ru - самый крупный в мире бесплатный архив песенных текстов, аккордов, табулатур и нот


Colony House - 2 20 - таба, видео

Регистрация Запомнить меня
Войти через:  Facebook Google Twitter Vk Yandex Mail.ru

Colony House - 2 20 - таба, видео

Печатать
Просмотров: 66
-------------------------------------------------------------------------------
                             2:20 - Colony House 
-------------------------------------------------------------------------------
Tabbed by:Jjkfore
E-mail:Jjkforeman@gmail.com

Tuning:Drop D (DADGBe)

 |Palm Mute Palm Mute Palm Mute Palm Mute Palm Mute Palm Mute Palm Mute|
e|-----------------------------------------------------11--------------------|
B|-----------------------------------------------------11--------------------|
G|-----------------------------------------------------11--------------------|
D|--------4---------------4--------------------4----------------4-------8-7-6|
A|-1-4-6----6-4-6---1-4-6---6-4-6--------1-4-6---6-4-6----1-4-6---6-4-6-8-7-6|
D|----------------1---------------8-7-6---------------------------------8-7-6|

e|-----------------------------------------------------11\-------------------|
B|-----------------------------------------------------11\-------------------|
G|-----------------------------------------------------11\-------------------|
D|-------4---------------4---------------------4-----------------4-----------|
A|-1-4-6---6-4-6---1-4-6---6-4-6---------1-4-6---6-4-6-----1-4-6---6-4-6-----|
D|---------------1---------------4-8-7-6---------------------------------8-7-|
                    "I try to take the high road, I try to make my own"
e|---------------------------------------------------------------------------|
B|---------------------------------------------------------------------9b7---|
G|-------------------------------------------------------------------------8-|
D|---------4-----------------------------------------------------------------|
A|---1-4-6---6-4-6-----------------------------------------------------------|
D|-8-------------------------------------------------------------------------|
           "I'm walking with my bare feet,and feeling every stone"      "I wa-        
e|---------------------------------------------------------------------------|
B|---------------------------------------------------------------------9-----|
G|-6---6-8-------------------------------------------------------------8-----|
D|---8-----------------------------------------------------------------6-----|
A|---------------------------------------------------------------------------|
D|-----------------------------------------------------------------1-4-------|
  lk the narrow, I walk the line right through the door, I walk the tight rope,
e|---------------------------------------------------------------------------|
B|-------------11------------12------------------------9---------------------|
G|-------------10------------11------------------------8---------------------|
D|-------------8-------------9-------------------------6---------------------|
A|---------------------------------------------------------------------------|
D|---------------------------------------------------------------------------|
  but I'm, just like I was before"
e|---------------------------------------------------------------------------|
B|-11------------------------------------------------------------------------|
G|-10------------------------------------------------------------------------|
D|-8--------------------------------4---------------4---------------------4--|
A|----------------------------1-4-6---6-4-6---1-4-6---6-4-6---------1-4-6---6|
D|------------------------------------------1---------------4-8-7-6----------|

e|---------------------------------------------------------------------------|
B|-----11p9p7----------------------------------------------------------------|
G|------------8--------------------------------------------------------------|
D|--------------------4-------------------4-11h13-11h13-11h13-11h13-11h13-11h|
A|-4-6----------1-4-6---6-4-6-------1-4-6------------------------------------|
D|----------------------------8-7-6------------------------------------------|

e|---------------------------------------------------------------------------|
B|---------------------------------------------------------------------------|
G|---------------------------------------------------------/13-11------------|
D|13-11h13-11h13-11h13-11h13-11h13-11h13-11h13-11h13-11h13--------11h13-11h13|
A|---------------------------------------------------------------------------|
D|---------------------------------------------------------------------------|

e|----------------------------------------------------------------------6----|
B|------------------------------------------------------------9-9-9-9-9---9--|
G|------------------------------------------------------------8-8-8-8-------8|
D|------------------------------------------------------------6-6-6-6--------|
A|-11h13-11h13-11h13-11h13-11h13-11h13-11h13-13b-------4---------------------|
D|-------------------------------------------------1-4---6-4-----------------|

e|------------------------------------------6--------------------------------|
B|-9-9-11-11-11-11-11-12-12-12-12-9-9-9-9-9---9---9-9-11----11---------------|
G|-8-8-10-10-10-10-10-11-11-11-11-8-8-8-8-------8-8-8-10----10---------------|
D|-6-6-8--8--8--8--8--9--9--9--9--6-6-6-6---------6-6-8-----8--11---11-------|
A|-------------------------------------------------------------11---11---1-4-|
D|-------------------------------------------------------------11---11-------|

e|-------------------------------------------------11-11-11------------------|
B|-------------------------------------------------11-11-11------------------|
G|-------------------------------------------------11-11-11------------------|
D|---4----------------4-------------------4-----------------------4----------|
A|-6---6-4-6----1-4-6---6-4-6-------1-4-6---6-4-6-----------1-4-6---6-4-6----|
D|-----------1----------------8-7-6---------------------------------------8-7|

e|---------------------------------------------------------------------------|
B|----------------------------------------------------------------9-7--------|
G|--------------------------------------------------------------------8------|
D|---------------------------------------------------------------------------|
A|-6----6-6-6-6-6-6-6-6-4h6-4h6-4-1---1-------4h6-4h6-4-1---1-4-6------4h6-4h|
D|----------------------------------6---6-4-1-------------6------------------|

e|-----------------11b-------------------------------------------------------|
B|-------------------------------------------11p9p7--------------------------|
G|--------------------------------------------------8\-----------------------|
D|---------------------------------------------------------------------------|
A|6-4-1---1------------4h6-4h6-4-1----1-4-6----------------------------------|
D|------6---6-4-1------------------6-----------------------------------------|






************************************

| /   slide up
| \   slide down
| h   hammer-on
| p   pull-off
| ~   vibrato
| +   harmonic
| x   Mute note
| b   Bend
| pb  Pre-bend
| br  Bend release
| pbr Pre-bend release
| brb Bend release bend

************************************
Добавлено: 25.11.2015
Вам также может быть интересно:
Другие материалы по этой песне:
  • Аккорды и текст

Страница создана 25.11.2015
http://primanota.ru/colony-house/2-20-chords.htm
Привет, Гость.
Предлагаем пройти революционный курс по гитаре.
Подарок от PrimaNota.Ru, забирай!