PrimaNota.ru - самый крупный в мире бесплатный архив песенных текстов, аккордов, табулатур и нот


Colonel Lou - Johnny Rebel - аккорды и текст, видео

Регистрация Запомнить меня
Войти через:  Facebook Google Twitter Vk Yandex Mail.ru

Colonel Lou - Johnny Rebel - аккорды и текст, видео

Печатать
Просмотров: 80
Johnny Rebel
Colonel Lou
Colonel Lou - Johnny Rebel

       D
Johnny Reb was from the Southland
          A               D
Where the cotton grows so tall
    G             D
And at the age of seventeen
   A                   D
He heard his country's call.
   
He kissed his poor old mother,
   A                 D
He told his dad good bye.
   G                  D
He checked his trusty rifle
       A               D
And he kept his powder dry.

       D
Johnny Reb, Johnny Reb,
    G               D
why did you have to go?
    
Johnny Reb, Johnny Reb,
A              D
Aw we miss you so!


e|---------------------------------------------------------------------------|
B|---------------------------------------------------------------------------|
G|---------------------------------------------------------------------------|
D|------------2-2-4-4-5-5-4---2----------------------------------------------|
A|--0-2-4-5-5---------------5--4-5-------------------------------------------|
E|---------------------------------------------------------------------------|


     D
They sent him off to Georgia
   A                D
To join the boys in grey.
   G               D
He fought his only battle
     A              D
On a cold and rainy day.

He cocked his gun and wet his sights,
A               D
Then he looked around
    G               D 
And every Yank that showed himself,
   A                   D
He quickly brought him down.

       D
Johnny Reb, Johnny Reb,
    G               D
why did you have to go?
    
Johnny Reb, Johnny Reb,
A              D
Aw we miss you so!

e|---------------------------------------------------------------------------|
B|---------------------------------------------------------------------------|
G|---------------------------------------------------------------------------|
D|------------2-2-4-4-5-5-4---2----------------------------------------------|
A|--0-2-4-5-5---------------5--4-5-------------------------------------------|
E|---------------------------------------------------------------------------|

         D      
When the fighting stopped they found him,
       A       D
He was barely alive.
        G                 D
But the Union troops that he brought down,
     A             D
They counted forty-five.

They found him lying in a ditch
        A                     D
when he breathed his last goodbye,
    G                 D                  A                  D
"My heart for our old Southland boys and keep our flag hold high!"

       D
Johnny Reb, Johnny Reb,
    G               D
why did you have to go?
    
Johnny Reb, Johnny Reb,
A              D
Aw we miss you so!

       D
Johnny Reb, Johnny Reb,
    G               D
why did you have to go?
    
Johnny Reb, Johnny Reb,
A              D
Aw we miss you so!


Basic chord structure:
D  A D G D A D    A D G D A D


This song is often mistaken for being sung by Johnny Rebel himself or other Southern artists.
Добавлено: 03.01.2016
Другие материалы по этой песне:
  • Аккорды и текст

Страница создана 03.01.2016
http://primanota.ru/colonel-lou/johnny-rebel-chords.htm
Привет, Гость.
Предлагаем пройти революционный курс по гитаре.
Подарок от PrimaNota.Ru, забирай!