PrimaNota.ru - самый крупный в мире бесплатный архив песенных текстов, аккордов, табулатур и нот


Collision - Blind Truth - таба, видео

Регистрация Запомнить меня
Войти через:  Facebook Google Twitter Vk Yandex Mail.ru

Collision - Blind Truth - таба, видео

Печатать
Просмотров: 71
Уроки эстрадного вокала в Санкт-Петербурге
Blind Truth off the "Tightrope" album by Collision.
During the verse there is heavy chorus used. Have fun! These are some
pretty tight songs.


    [ Part 2: "Attached Text" ]

Rythm Guitar
             C5   C5        A#sus2                   F5                     
E||--------------------||---1----1--1----1--1--1--|------------------------|
B||--------------------||---1----1--1----1--1--1--|------------------------|
G||----------5----5----||*--3----3--3----3--3--3--|--5----5--5----5--5--5--|
D||----------5----5----||*--3----3--3----3--3--3--|--3----3--3----3--3--3--|
A||----------3----3----||---1----1--1----1--1--1--|--3----3--3----3--3--3--|
D||--------------------||-------------------------|--3----3--3----3--3--3--|


     G5              Bb5                          3x   D5                
-------------------------|------------------------||--------------------|
-------------------------|------------------------||---3----------------|
--5--7----5--5--7----10--|----7--5-----5--7------*||*--2----------------|
--3--5----3--3--5----8---|----5--3-----3--5------*||*--0----------------|
--3--5----3--3--5----8---|----5--3--0--3--5-------||---0----------------|
--3--5----3--3--5----8---|----5--3--0--3--5-------||---0----------------|


  F5                                                        5x
-------------------|-------------------|--------------------||
--1----------------|-------------------|--------------------||
--3----------------|--5----------------|--5----------------*||
--3----------------|--3----------------|--5----------------*||
--1----------------|--3----------------|--3-----------------||
-------------------|--3----------------|--------------------||


                                                                               
--------------------------|-------------------------|-------------------------|
--------------------------|-------------------------|-------------------------|
*-----------3~------------|-----------5~------------|-----------7~------------|
*--------1-------1--------|--------3-------3--------|--------5-------5--------|
------1-------------1-----|-----3-------------3-----|-----5-------------5-----|
---1-------------------1--|--1-------------------3--|--5-------------------5--|


                          2x                                                    
--------------------------||-------------------------|-------------------------|
--------------------------||-------------------------|-------------------------|
-----------7-------------*||-----------3~------------|-----------5~------------|
--------5-------7--------*||--------1-------1--------|--------3-------3--------|
-----5-------------5------||-----1-------------1-----|-----3-------------3-----|
--5-------------------5---||--1-------------------1--|--1-------------------3--|


                                                         A#sus2                 
-------------------------|--------------------------||---1----1--1----1--1--1--|
-------------------------|--------------------------||---1----1--1----1--1--1--|
-----------7~------------|--------------------------||*--3----3--3----3--3--3--|
--------5-------5--------|--5--5--5--5--5--5--5--5--||*--3----3--3----3--3--3--|
-----5-------------5-----|--5--5--5--5--5--5--5--5--||---1----1--1----1--1--1--|
--5-------------------5--|--5--5--5--5--5--5--5--5--||-------------------------|


  F5                          G5              Bb5                          3x
------------------------|-------------------------|------------------------||
------------------------|-------------------------|------------------------||
--5----5--5----5--5--5--|--5--7----5--5--7----10--|----7--5-----5--7------*||
--3----3--3----3--3--3--|--3--5----3--3--5----8---|----5--3-----3--5------*||
--3----3--3----3--3--3--|--3--5----3--3--5----8---|----5--3--0--3--5-------||
--3----3--3----3--3--3--|--3--5----3--3--5----8---|----5--3--0--3--5-------||


                                                                              
------------------------|------10------10-----10-----8--|--0-----------------|
--15~-------------15~---|-------------------------------|--10----------------|
--14~-------12----------|--10------10/-----9------9-----|--10----------------|
------------------------|-------------------------------|--12----------------|
------------------------|-------------------------------|--------------------|
------------------------|-------------------------------|--------------------|


                    
------------------||
------------------||
------------------||
------------------||
------------------||
------------------||
     
Добавлено: 24.06.2013
Другие материалы по этой песне:
  • Аккорды и текст

Страница создана 24.06.2013
http://primanota.ru/collision/blind-truth-chords.htm
Привет, Гость.
Предлагаем пройти революционный курс по гитаре.
Подарок от PrimaNota.Ru, забирай!