PrimaNota.ru - самый крупный в мире бесплатный архив песенных текстов, аккордов, табулатур и нот


Collin Lamkey - Do You Know - таба, видео

Регистрация Запомнить меня
Войти через:  Facebook Google Twitter Vk Yandex Mail.ru

Collin Lamkey - Do You Know - таба, видео

Печатать
Просмотров: 121
Уроки эстрадного вокала в Санкт-Петербурге
Author/Artist: Collin Lamkey
Title: Do YoU KnOw
Album: zoom
Transcribed by: Collin Lamkey
Email: sept2005@home.com

Here is how the song goes in order.
Riff  1x2
Riff  2x2
Riff  3x2
Riff  2x2
Riff  3x2
Riff  4 do till band will stop keep repeating the riff

-|--------------------------------|------------------------|------------------|
-|8---8---8---8---6---6---6---6---|6-8p6-6-8p6-6-8p6-6-8p6-|------------------|
-|--7---7---7---7---7---7---7---7-|------------------------|------------------|
-|--------------------------------|------------------------|------------------|
-|--------------------------------|------------------------|------------------|
-|--------------------------------|------------------------|------------------|
 Intro Guitar 1 Riff 1

-|----------------------------------------|-----------------------------------|
-|----------------------------------------|-----------------------------------|
-|----------------------------------------|-----------------------------------|
-|-222222222222-222222222222-222222222222-|-----------------------------------|
-|-222222222222-222222222222-222222222222-|-----------------------------------|
-|-000000000030-000000000030-000000000030-|-----------------------------------|
  Verse guitar 1 Riff 2

-|--------------------------------------|-------------------------------------|
-|--------------------------------------|-------------------------------------|
-|--------------------------------------|-------------------------------------|
-|--------------------------------------|-------------------------------------|
-|--------------------------------------|-------------------------------------|
-|000000000030-00000000030-000000000030-|-------------------------------------|
 Verse Guitar 2 Riff 2

-|-----------------|----------------------------------------------------------|
-|-----------------|----------------------------------------------------------|
-|-----------------|----------------------------------------------------------|
-|-----------------|----------------------------------------------------------|
-|---5---5---3---3-|----------------------------------------------------------|
-|-3---3---1---1---|----------------------------------------------------------|
 Chorus Guitar 1  Riff 3

-|-------|--------------------------------------------------------------------|
-|-------|--------------------------------------------------------------------|
-|-------|--------------------------------------------------------------------|
-|-55-33-|--------------------------------------------------------------------|
-|-55-33-|--------------------------------------------------------------------|
-|-33-11-|--------------------------------------------------------------------|
 Guitar 2 Chorus Riff 3

-|-5555555555/3333333333------------------------------------------------------|
-|-5555555555/3333333333------------------------------------------------------|
-|-5555555555/3333333333------------------------------------------------------|
-|-7777777777/5555555555------------------------------------------------------|
-|-7777777777/5555555555------------------------------------------------------|
-|-5555555555/3333333333------------------------------------------------------|
  Outro Guitar 2 Riff 4

-|---------------------------|------------------------------------------------|
-|---------------------------|------------------------------------------------|
-|---------------------------|------------------------------------------------|
-|------5------5------3-----3|------------------------------------------------|
-|---57-----57-----35----35--|------------------------------------------------|
-|-7------7------3------3----|------------------------------------------------|
  Outro Guitar 1 Riff 4
Добавлено: 14.05.2012
Другие материалы по этой песне:
  • Аккорды и текст

Страница создана 14.05.2012
http://primanota.ru/collin-lamkey/do-you-know-chords.htm
Привет, Гость.
Предлагаем пройти революционный курс по гитаре.
Подарок от PrimaNota.Ru, забирай!