PrimaNota.ru - самый крупный в мире бесплатный архив песенных текстов, аккордов, табулатур и нот


Collective Soul - What I Can Give You - текст песни, таба, бас-таба, видео

Регистрация Запомнить меня
Войти через:  Facebook Google Twitter Vk Yandex Mail.ru

Collective Soul - What I Can Give You - текст песни, таба, бас-таба, видео

Печатать
Просмотров: 202
Авторы музыки: Ed Roland
Авторы текста: Ed Roland
Member:  blur819
Collective Soul - What I Can Give You
2007 Album:  Afterwords
Tabbed By:  Jeff Martin
Tuning: Half Step Down

Chords used:
   G   Bm7    C 	  E7	  A7	  Db	   D	   E	   A

|---|	|-2-|	|---|	|-0-|	|-0-|	|---|	|---|	|---|	|-5-|
|---|	|-3-|	|---|	|-0-|	|-2-|	|---|	|---|	|-9-|	|-5-|
|-4-|	|-2-|	|-5-|	|-1-|	|-0-|	|-2-|	|-7-|	|-9-|	|-6-|
|-5-|	|-4-|	|-5-|	|-0-|	|-2-|	|-2-|	|-7-|	|-9-|	|-7-|
|-5-|	|-2-|	|-3-|	|-2-|	|-0-|	|-4-|	|-5-|	|-7-|	|-7-|
|-3-|	|-x-|	|-x-|	|-0-|	|-x-|	|-x-|	|-x-|	|-x-|	|-5-|

Intro: (Listen for rhythm and pick scrapes)
Guitar 2: (Rhythm Guitar - Clean)  Note: The Bm7 could be a D at the 5th fret.
G-G-G-Bm7-C
G-G-G- Bm7-C

Verse:
Guitar 2:
G-G-G-Bm7-C
G-G-G-Bm7-Db-E7-E7-A7

Chorus 1:
Guitar 1: (Distortion)
D-C-G-G-G x3

Guitar 2:
Bm7-C-G-G-G x3

Guitar 1 (Lead Fill#1)  Note: There is even more going on than this... there are more ghost notes...
...perhaps on the open G string)
(0:53)
|----------------------------------------------------------------|
|-10p0-12p0-8p0-12h13-12h13-12-12-0-10p0-12p0-8p0-10p0-8---------|
|----------------------------------------------------------------| x2
|----------------------------------------------------------------|
|----------------------------------------------------------------|
|----------------------------------------------------------------|

Guitar 2:
(0:53)
G-G-G-Bm7-C
G-G-G- Bm7-C

Verse 2:  (same as Verse 1.   Guitar 1 can play distorted power chords and hold them)

Chorus 2: (same as Chorus 1)

Guitar 1: (Lead fill#2)
(1:25)
|-------------------------------------------15---15----------------------|
|----13-12-------13-12-------13-12-------12---12-------------------------|
|-0-0-----0-0-0-0-----0-0-0-0-----0-0-0-0-----------| x2 (second at 1:34-|
|------------------------------------------------------------------------|
|------------------------------------------------------------------------|
|------------------------------------------------------------------------|

Bridge:
Guitar 2:
E (x8)--A(x8)--C(x8)--G

Guitar 1: (Lead Fill#3)
(1:48)
|------------------------------------------------------------------------|
|-15b17b15r12--10--12------15b17b15r12--10-------15b17b15r12--10---------|
|---------------------12--------------------12---------------------12----|
|------------------------------------------------------------------------|
|------------------------------------------------------------------------|
|------------------------------------------------------------------------|

The rest of the song goes...
Intro again
Chorus
Lead Fill#2 with appropriate rhythm behind it.
Lead Fill#1 with appropriate  rhythm behind it.

End.  PEACE
Добавлено: 13.07.2012
Другие материалы по этой песне:

Страница создана 08.04.2012
http://primanota.ru/collective-soul/what-i-can-give-you-chords.htm
Привет, Гость.
Предлагаем пройти революционный курс по гитаре.
Подарок от PrimaNota.Ru, забирай!