PrimaNota.ru - самый крупный в мире бесплатный архив песенных текстов, аккордов, табулатур и нот


Collective Soul - Understanding - таба, видео

Регистрация Запомнить меня
Войти через:  Facebook Google Twitter Vk Yandex Mail.ru

Collective Soul - Understanding - таба, видео

Печатать
Просмотров: 85
Авторы музыки: Ed Roland
Авторы текста: Ed Roland, Dean Roland, Joel Kosche, Will Turpin
Collective Soul - Understanding (solo)
By: Daniel Romney

This tab is in standard tuning, but the song is dropped 1/2 step.  If you're playing 
with your guitar dropped 1/2 step, just move every note up one fret.

Verse:     (x = palm mute)
e|-3-x-3-x-3-3-3-3-3--|
B|-0-x-3-x-0-0-3-3-0--|
G|-0-x-0-x-0-0-0-0-0--|
D|-2-x-2-x-2-2-2-2-2--| x2   Then do the same thing but with a G chord x2
A|-2-x-2-x-2-2-2-2-2--|
E|-0-x-0-x-0-0-0-0-0--|

Going into the solo:
e|-4--------4--------|
B|-4--------6--------|
G|-4--------6--------|
D|-6--------6--------|     x4
A|-6--------4--------|
E|-4-----------------|

SOLO:
e|-----------------------------------|------------------------------------|
B|-12h11-----------------------------|-11-11h12h11------------------------|
G|-------11~-----------------13-13~--|-------------11~--------------------|
D|------------11h13-13/15-13~--------|------------------11h13-13/15-13-11-|
A|-----------------------------------|------------------------------------|
E|-----------------------------------|------------------------------------|

---------|---------------14~---------------------------|
---------|---11--12--14--------11--12--14--14h16h14~---|
---------|---------------------------------------------|
---------|-11--11--11--11----11--11--11--11------------|
-14-/16--|---------------------------------------------|
---------|---------------------------------------------|

-----------------------11--13--14--16h14-18h14-18/19\18~--|
---11--12--14--12--14-------------------------------------|
-------------------------11--11---------------------------|
-11--11--11--11--11--11-----------------------------------|
----------------------------------------------------------|
----------------------------------------------------------|

-11--13----------14-14h13--11-------|--------------------|
--------14~--------------14--9-9h11-|-9h11~-9h11~-9h11~--|
------------------------------------|--------------------|
------------------------------------|--------------------|
------------------------------------|--------------------|
------------------------------------|--------------------|

------------9---------------------------------------------------------------|
-9h11~-9h11~-11~---9h11~-9h11~-9h11~--11~-12-9------------------------------|
------------------------------------------------6-6--6h8h6-6h8h6------------|
----------------------------------------------------8-----------6h8h6-------|
----------------------------------------------------------------------6h9h6-|
----------------------------------------------------------------------------|

-----|-----------------------------------------------13-13-14-13---------|
-----|--------------------------------11-11h12-12/14------------h14--13--|
-----|-------------------------------------------------------------15----|
-4~--|--------4----------------------------------------------------------|
-----|----4h6---6----11-11~--11/13--13-----------------------------------|
-----|-2-----------------------------------------------------------------|

--------------------------------------------9----------|
-9--11--9--11--9--11--9--11----9--11--9--11--11---9~---|  Continues while
-10-11--10-11--10-11--10-11----10-11--10-11-----11-----|  fading out.
-------------------------------------------------------|
-------------------------------------------------------|
-------------------------------------------------------|
Добавлено: 16.03.2012
Другие материалы по этой песне:
  • Аккорды и текст

Страница создана 16.03.2012
http://primanota.ru/collective-soul/understanding-chords.htm
Привет, Гость.
Предлагаем пройти революционный курс по гитаре.
Подарок от PrimaNota.Ru, забирай!