PrimaNota.ru - самый крупный в мире бесплатный архив песенных текстов, аккордов, табулатур и нот


Collective Soul - Tremble For My Beloved - текст песни, таба, видео

Регистрация Запомнить меня
Войти через:  Facebook Google Twitter Vk Yandex Mail.ru

Collective Soul - Tremble For My Beloved - текст песни, таба, видео

Печатать
Просмотров: 216
"Tremble for my Beloved"- by Collective Soul
Standard Tuning
Guitar 1:Lead            **Have a wah pedal for this one!**
Guitar 2:Rythm
                             -Intro-
Gtr 2:
---------------------------------------------------------------------------|
---------------------------------------------------------------------------|
---------------------------------------------------------------------------|
---------------------------------------------------------------------------|
---------6~----------------------------------------------------------------|
---------4~----------------------------------------------------------------|

Gtr 1:    (use a wah pedal)
---------------------------------------|
-----------------------13-11-13~~~~~---|     x3
---------------13-11~~~----------------|
---------------------------------------|
---------------------------------------|
---------------------------------------|

4th time, do this one...
-------------------------------------------------|
-------------------------------------------------|
-------13-11-------------------------------------|
-------------13~--11-13--------------------------|
------------------------13b-11-13-11-------------|
-------------------------------------------------|

Gtr 2:                             Gtr 1:
-------------------------------|   |-----------------------------|
-------------------------------|   |-----------------------------|
-------------------------------|   |-----------------------------|
-------------------------------|   |--6-6h8p6--6-6h8p6-----------|   x20
--------6~~~-------------------|   |-----------------------------|
--------4~~~-------------------|   |-----------------------------|

                              -Verses-
Gtr 2:
------------------------|  |----------------------------|
------------------------|  |----------------------------|
------------------------|  |----------------------------|  wah pedal
------------------------|  |---6--6--6--6--6--6--6--6---|   x2
----------6~~-----------|  |---4--4--4--4--4--4--4--4---|
----------4~~-----------|  |----------------------------|

Gtr 1:
----------------------|     |----------------------------------------------|
---2nd Verse Only-----|     |----------------------------------------------|
----------------------|     |11-10----11-10--13-10-13-11--10---11-10-------|
-6-6h8p6--6-6h8p6-----| x10 |----------------------------------------13-11-|
----------------------|     |----------------------------------------------|
----------------------|     |----------------------------------------------|

                                 -Chorus-
Gtr 2:
-------------------------------------------------------------------|
-------------------------------------------------------------------|
-------------------------------------------------------------------|
--6------8------6-------------6------8-----------------------------|
--4------6------4------6------4------6------6----------------------|
-----------------------4--------------------4----------------------|

Gtr 1:
--11----------------11-------------------------11--------------------------|
----14--13----11~~----14--13---------------------14--13----11-----13p12-13-|
-----------13----------------13---\\\13-12~~------------13-----------------|
---------------------------------------------------------------------------|
---------------------------------------------------------------------------|
---------------------------------------------------------------------------|

                                -Solo-

Gtr 2:
--------------------------------------|
--------------------------------------|
--------------------------------------|    x2
-----------------------66~-------66~--|
---66~-------66~-------44~-------44~--|
---44~-------44~----------------------|

Gtr 1: **wah pedal**
---------------------------------------------------------------------------|
------FAST PICKING---------------------------------------------------------|
---------------------------------------------------------------------------|
66666-8---66666-8---66666h8-10-8-10-8---66666-8---66666-8---66666h8-10-8-10|
---------------------------------------------------------------------------|
---------------------------------------------------------------------------|

-----------------------Strum Like Crazy!-----------------------------------|
---------------------------------------------------------------------------|
--8888888---10101010101010101010---888888---10101010101010101010---888888--|
---------------------------------------------------------------------------|
---------------------------------------------------------------------------|
---------------------------------------------------------------------------|

-----------------------------------------wah---------wah-------wah---------|
---------------------------------------------------------------------------|
-10101010101010101010-13-12-13-15---13-13h15p13--13h15p13--13h15p13-12-----|
---------------------------------------------------------------------------|
---------------------------------------------------------------------------|
---------------------------------------------------------------------------|

-------wah--------wah-------wah--------------------------------------------|
-------------------------------------131313131313-14141414141414141414-----|
-13-13h15p13--13h15p13--13h15p13-12-------------------------------------13-|
---------------------------------------------------------------------------|
---------------------------------------------------------------------------|
---------------------------------------------------------------------------|
                                                                Techno Wah
--------11-----------------------------------------------------------------|
-13-14-----14-----131313131313-14141414141414141414----------21----21----21|
--------------13------------------------------------13131313----20----20---|
---------------------------------------------------------------------------|
---------------------------------------------------------------------------|
---------------------------------------------------------------------------|

                            -Ending-
Gtr 2:
--------------------------------|
--------------------------------|
--------------------------------|
--------------------------------|
--66~---66~---66~---66~------6~~|
--44~---44~---44~---44~------4~~|

Gtr 1:
-----------------------------------------------------------------------------|
------13-11-13~------13-11-13~--------13-11-13~------------------------------|
13-11~---------13-11~---------13-11~-----------13-11~------------------------|
-----------------------------------------------------13~-11-13-----------13~-|
---------------------------------------------------------------13b-11-13-11~-|
-----------------------------------------------------------------------------|


So there it is, I worked really, really hard on this one since its all by ear. I think 
pretty damn close to the original though and I've checked all of the notes compared to 
song. Keep it rockin' out there!
                                                                  -T.Moe!
Order:

intro                             Legend:
verse
chorus                          / = slide up
verse                           h = hammer on
chorus                          p = pull off
solo                            ~ = vibrato
chorus
ending
Добавлено: 16.03.2012
Другие материалы по этой песне:
  • Аккорды и текст

Страница создана 16.03.2012
http://primanota.ru/collective-soul/tremble-for-my-beloved-chords.htm
Привет, Гость.
Предлагаем пройти революционный курс по гитаре.
Подарок от PrimaNota.Ru, забирай!