PrimaNota.ru - самый крупный в мире бесплатный архив песенных текстов, аккордов, табулатур и нот


Collective Soul - Reunion - аккорды и текст, таба, видео

Регистрация Запомнить меня
Войти через:  Facebook Google Twitter Vk Yandex Mail.ru

Collective Soul - Reunion - аккорды и текст, таба, видео

Печатать
Просмотров: 222
Уроки эстрадного вокала в Санкт-Петербурге
Авторы музыки: Ed Roland
Авторы текста: Ed Roland
Reunion
Collective Soul
		   Song name: Reunion
Artist name: Collective Soul
Album: Collective Soul
Track: 12
Tablatures: Alejandro Mauro
amauro@tatu.cnba.uba.ar
You should use MS LineDraw or Courier font to see this tab properly in a
word processor.
[utilizar las letras MS LineDraw o Courier para ver
correctamete este archivo]


Lyrics


G		   C
Change will come
            G  C-G
Change es here
Love fades out
Then love appears


        Em               C
Now my water's turned to wine
           G
And these thoughts I have
      D             C
I now claim as mine
            G
I'm coming home


Change has been
Change will be
Time will tell
Then time will ease

Now my courtain has been drawn
And my heart can go
Where my heart does belong
I'm going home


Intro



G
|---------3-------------------------3----------------------|--------------------
|------------0-------------------------0-------------------|--------------------
|------0--------0----------------0--------0----------------|--------------------
|---------------------------2p0----------------------------|--------------------
|---------------------0--2----------------------2--3p0-----|--------------------
|---3---------------------------------------------------3--|--------------------


This is just a part of the solo, if someone can catch the rest..cool.



|/7--9--7--9--7-----------------------------------------------------------------
|----------------8~~~-----------------------------------------------------------
|-------------------------7-----9--7-----7-----9--7-----------------------------
|----------------------9-----9--------9-----9-----------------------------------
|----------------------------------------------------10/12----------------------
|-------------------------------------------------------------------------------


========================================================================
========
==                           TABLATURE
EXPLANATION
==
========================================================================
========

----------                            ----------
----5h8--- Hammeron                   ----(8)--- Ghost Note
----------                            ----------
----5p8--- Pulloff                    ----------

----------                            ----------
----5/8--- Slide Up                   -----x---- Dead Note
----------                            ----------
----5\8--- Slide Down                 ----------

----------                            ||------|| Repeat Start & End
----5~~~-- Vibrato                    ||*----*||
----------                            ||*----*||
----------                            ||------||

Rhythm:
  w = whole note            W = dotted whole
  h = half note             H = dotted half
  q = quarter note          Q = dotted quarter
  e = eighth note           E = dotted eighth
  s = sixteenth note        S = dotted sixteenth
  ^ = triplet



Any comments to amauro@tatu.cnba.uba.arArtist: Collective Soul
Title: Reunion Solo
Album: Collective Soul
Transcribed by: Kyle Smith
Email: ktulu54@hotmail.com

E--5/7-10-7-10-7/3-3-----------
B-------------------0-3-0-3/5-

E----------------------5/7-3h5
B-3-0-3-0-3/5-3---------------
G--------------0-2-0-2--------

E-/7-3-3-3h5/7-3--3h5/7-3-5/7-8
B---------------3-------------

E-10-8-7-7-3h5/7-3-3-3h5/7-12-
B----------------------------

E-10-7-----------------------
B----------------------------

Listen to the song for timing and stuff
Email me at ktulu54@hotmail.com     
Добавлено: 18.06.2013
Другие материалы по этой песне:
  • Аккорды и текст

Страница создана 27.02.2012
http://primanota.ru/collective-soul/reunion-chords.htm
Привет, Гость.
Предлагаем пройти революционный курс по гитаре.
Подарок от PrimaNota.Ru, забирай!