PrimaNota.ru - самый крупный в мире бесплатный архив песенных текстов, аккордов, табулатур и нот


Collective Soul - Heaven Let Your Light Shine Down - текст песни, таба, видео

Регистрация Запомнить меня
Войти через:  Facebook Google Twitter Vk Yandex Mail.ru

Collective Soul - Heaven Let Your Light Shine Down - текст песни, таба, видео

Печатать
Просмотров: 155
-----------------------------------------------------------------------------
                Heaven let your light shine down - Collective soul
-----------------------------------------------------------------------------
Tabbed by:Steve
Email:rafd02@aim.com

Tuning:Drop D (D,A,D,G,B,E)

                             Main Riff
e|---------------------------------------------------------------------------|
B|---------------------------------------------------------------------------|
G|--8h10-------10----8--6--6--6----8h10-------10----14-10-10----8-----10-----|
D|--11---11-11-11-11-11-11-11-11---11---11-11-11-11-11-11-11-11-11-11-11-11--|
A|---------------------------------------------------------------------------|
D|---------------------------------------------------------------------------|

e|---------------------------------------------------------------------------|
B|---------------------------------------------------------------------------|
G|--4------4----4---4-----4-4-4-11-----11--11--11----11----------------------|
D|--4------4----4---4-----4-4-4-11-----11--11--11----11----------------------|
A|--2--2-2----2---2---2-2-----2/9--9-9----9-------9-9------------------------|
D|---------------------------------------------------------------------------|

                          Riff 2
e|---------------------------------------------------------------------------|
B|---------------------------------------------------------------------------|
G|---------------------------------------------------------------------------|
D|---------------------------------------------------------------------------|
A|----------------------------5-------------------------------5--6-----------|
D|-0-0--3--0-0--3--0-0--3--0--5----0-0--3--0-0--3--0-0--3--0--5--6-----------|

                           Chorus
e|---------------------------------------------------------------------------|
B|---------------------------------------------------------------------------|
G|--4--4-------------------6-6-6-6-6--6-6-6----------------------------------|
D|--4--4-------------------6-6-6-6-6--6-6-6----------------------------------|
A|--2--2--4-4-4-x-x-4-x-x--4-4-4-4-4--4-4-4----------------------------------|
D|--------4-4-4-x-x-4-x-x----------------------------------------------------|

                Solo (not exact,just improvise in these areas)
e|---------------------------------------------------------------------------|
B|---------9----9-------9----9------9---9------9----9------9-----9-----------|
G|---------9----9-------9----9------9---9------9----9------9-----9-----------|
D|---9h11----11----9h11---11---9h11---11---9h11--11----9h11---11-------------|
A|---------------------------------------------------------------------------|
D|---------------------------------------------------------------------------|

e|--------------------------------9tr12--12b(13)-12p9------12b-12b-----------|
B|--------------9tr12-------9tr12---------------------12p9-------------------|
G|--------9tr11-------9tr11--------------------------------------------------|
D|--9tr11--------------------------------------------------------------------|
A|---------------------------------------------------------------------------|
D|---------------------------------------------------------------------------|

e|-------12-9----9--12b-------12-9----9-12b------12-9----9-12b-12b-----------|
B|--9-12------12---------9-12------12-------9-12------12---------------------|
G|---------------------------------------------------------------------------|
D|---------------------------------------------------------------------------|
A|---------------------------------------------------------------------------|
D|---------------------------------------------------------------------------|

e|--------9-----9-----9----9----9----9----12---12----------------------------|
B|---x-x--9-----9-----9----9----9----9----9b---9b----------------------------|
G|---x-x----11b---11b---11b--11b--11b----------------------------------------|
D|---------------------------------------------------------------------------|
A|---------------------------------------------------------------------------|
D|---------------------------------------------------------------------------|


Order Of Song:
Main Riff     x3
Riff 2        x2
Chorus        x4
Main Riff     x3
Riff 2        x2
Chorus        x4
Main Riff     x1
Solo
Main Riff     x3
Riff 2        x2
Chorus        x7
Riff 2        x2

| /  slide up
| \  slide down
| h  hammer-on
| p  pull-off
| ~  vibrato
| x  Mute
| b  Bend

-----------------------------------------------------------------------------|
-----------------------------------------------------------------------------|
Добавлено: 03.07.2012
Другие материалы по этой песне:
  • Аккорды и текст

Страница создана 03.07.2012
http://primanota.ru/collective-soul/heaven-let-your-light-shine-down-chords.htm
Привет, Гость.
Предлагаем пройти революционный курс по гитаре.
Подарок от PrimaNota.Ru, забирай!