PrimaNota.ru - самый крупный в мире бесплатный архив песенных текстов, аккордов, табулатур и нот


Collective Soul - Disciplined Breakdown - текст песни, таба, видео

Регистрация Запомнить меня
Войти через:  Facebook Google Twitter Vk Yandex Mail.ru

Collective Soul - Disciplined Breakdown - текст песни, таба, видео

Печатать
Просмотров: 104
Song: Disciplined Breakdown
Band: Collective Soul
Album: Disciplined Breakdown

I wanted the tab for this song but the only one out there was
the PowerTab version which I can't see since I can't install PowerTab
onto my computer for some reason, so I figured it out myself.


Tuned down 1/2 step


Verse 1
Riff A repeated throughout verse
Eb----------------------------------------------------------------------|
Bb----------------------------------------------------------------------|
Gb----------------------------------------------------------------------|
Db----------------------------------------------------------------------|
Ab---------------7---6---5----------------------------------------------|
Eb--0-5p0-7p0--0---0---0------------------------------------------------|


Chorus-- Guitar 1 strums the chords listed above lyrics; Guitar 2 plays
the tab below (elec. w/slide & heavy distortion)

Eb----------------------------------------------------------------------|
Bb--7--7s12-10--10s2-0---9-9s10-9-5-------------------------------------|
Gb----------------------------------------------------------------------|
Db----------------------------------------------------------------------|
Ab----------------------------------------------------------------------|
Eb----------------------------------------------------------------------|
  D         A           E
  "It seems I am losing ground"

Eb----------------------------------------------------------------------|
Bb-7--7s12-10---10s2-0--------------------------------------------------|
Gb----------------------------------------------------------------------|
Db----------------------------------------------------------------------|
Ab----------------------------------------------------------------------|
Eb----------------------------------------------------------------------|
  D         A                   E
  "Welcome  to my disciplined breakdown"

Verse 2 (Riff A)
Chorus


Bridge-- the bridge is actually 2 guitars, but it's very difficult
to differentiate the two so i tabbed it as one guitar and tried to
include the parts that stand out the most.

Eb----------------------------------------------------------------------|
Bb----------------------------------------------------------------------|
Gb--x-x-6-6-6-6-6---------6-6-6-6-6---7-----9-----7h9p7-----9-----7h9p7-|
Db--x-x-7-7-7-7-7--7b8r7--7-7-7-7-7-----9-9---9-9-------9-9---9-9-------|
Ab--x-x-7-7-7-7-7---------7-7-7-7-7-------------------------------------|
Eb--x-x-5-5-5-5-5---------5-5-5-5-5-------------------------------------|

Eb----------------------------------------------------------------------|
Bb-----------------------------9b10r9-----------------------------------|
Gb------9-----7h9p7-----9-------------x-x-6-6-6-6-6---------6-6-6-6-6---|
Db--9-9---9-9-------9-9---9-9---------x-x-7-7-7-7-7--7b8r7--7-7-7-7-7---|
Ab------------------------------------x-x-7-7-7-7-7---------7-7-7-7-7---|
Eb------------------------------------x-x-5-5-5-5-5---------5-5-5-5-5---|

    <-------Palm Muted---------------------------------------------------|
Eb-----------------------------------------------------------------------|
Bb-----------------------------------------------------------------------|
Gb---------------------------4-4-4-4-4-4-4-4-----------------------------|
Db-------5-5-5-5-5-5-5-5-----4-4-4-4-4-4-4-4-----------------------------|
Ab-------5-5-5-5-5-5-5-5-----2-2-2-2-2-2-2-2-----------------------------|
Eb-------3-3-3-3-3-3-3-3-------------------------------------------------|
    "From all this madness and all this agony"


Verse 3 (Riff A)
Chorus x2
Riff A
Добавлено: 19.04.2012
Другие материалы по этой песне:

Страница создана 19.04.2012
http://primanota.ru/collective-soul/disciplined-breakdown-chords.htm
Привет, Гость.
Предлагаем пройти революционный курс по гитаре.
Подарок от PrimaNota.Ru, забирай!