PrimaNota.ru - самый крупный в мире бесплатный архив песенных текстов, аккордов, табулатур и нот


Collective Soul - Boast - аккорды и текст, таба, видео

Регистрация Запомнить меня
Войти через:  Facebook Google Twitter Vk Yandex Mail.ru

Collective Soul - Boast - аккорды и текст, таба, видео

Печатать
Просмотров: 140
Boast
Collective Soul
Collective Soul
"Boast"
>From the CD "Blender"
Tabbed By Graham Nash (DGNR81025@aol.com)

This song is really easy, basically 3 riffs.
Tuning: down 1/2 step, listen to the cd for the rhythm.
Guitar 1: Acoustic
Guitar 2: Electric

Guitar 1 Verse: Only 2 Chords
    D   D/C#? G
Eb--2-I----I--3-I
Bb--3-I--2-I--3-I
Gb--2-I--2-I--0-I
Db--0-I--0-I--0-I
Ab----I----I--2-I
Eb----I----I--3-I

Guitar 2 part after verse:
Eb------------------------------
Bb------------------------------
Gb------------------------------
Db--4-----5-----7-----4---4-5---
Ab--2-0-0-3-0-0-5---0-2-0-2-3-0-
Eb------------------------------

Guitar 2 Bridge:
Eb----0---------0-
Bb----0---------0-
Gb--------------4-
Db--3---------5---
Ab--3---------5---
Eb--1---------3---

Eb--------------------------------
Bb--------------------------------
Gb--------------------------------
Db--5-4---7--5-4---5-4---7--5-4-2-
Ab--3-2-0-5--3-2-0-3-2-0-5--3-2-0-
Eb--------------------------------

Thats it, the song repeats itself alot so if you just get the 
rhythm down you should have no problem at all.
     
Добавлено: 20.09.2013
Другие материалы по этой песне:
  • Аккорды и текст

Страница создана 25.03.2012
http://primanota.ru/collective-soul/boast-chords.htm
Привет, Гость.
Предлагаем пройти революционный курс по гитаре.
Подарок от PrimaNota.Ru, забирай!