PrimaNota.ru - самый крупный в мире бесплатный архив песенных текстов, аккордов, табулатур и нот


Collective Soul - Better Now Live - таба, видео

Регистрация Запомнить меня
Войти через:  Facebook Google Twitter Vk Yandex Mail.ru

Collective Soul - Better Now Live - таба, видео

Печатать
Просмотров: 127
This is the live version of Better Now. I don't how much different it is from the CD but 
know it's different. I'm pretty sure this is accurate.

Intro:
Palm Muted

---------|
---------|
-3-3-3-3-|
-3-3-3-3-| x2
-1-1-1-1-|
---------|


Verse:

--------------------------------------|
--------------------------------------|
-3-3-3---6-------3-3-3--3-6-6---------|
-3-3-3-6-6-6-6-6-3-3-3--3-6-6-6-6-6-6-| x2
-1-1-1-6-4-6-6-6-1-1-1--1-4-4-6-6-6-6-|
-------4---4-4-4--------------4-4-4-4-|

Chorus:
2nd time the chorus is played, a wah pedal is used.

-------------------------------------|
-------------------------------------|
-3-3-3-3-6-6-6-6---------------------|
-3-3-3-3-6-6-6-6-6-6-6-6-4-4-6-6-6-6-| x2
-1-1-1-1-4-4-4-4-6-6-6-6-4-4-6-6-6-6-|
-----------------4-4-4-4-2-2-4-4-4-4-|

Bridge:
Basically play dead strings

-------------|
-------------|
-------------|
-x-x-x-x-x-x-|
-x-x-x-x-x-x-|
-x-x-x-x-x-x-|
(The world's done shakin'...)

There's a couple of solos toward the end of the song but I can't solo worth crap so if 
knows them, I'd love to see it.
Добавлено: 06.04.2012
Другие материалы по этой песне:
  • Аккорды и текст

Страница создана 06.04.2012
http://primanota.ru/collective-soul/better-now-live-chords.htm
Привет, Гость.
Предлагаем пройти революционный курс по гитаре.
Подарок от PrimaNota.Ru, забирай!