PrimaNota.ru - самый крупный в мире бесплатный архив песенных текстов, аккордов, табулатур и нот


Collapsed - Natural Disaster - таба, видео

Регистрация Запомнить меня
Войти через:  Facebook Google Twitter Vk Yandex Mail.ru

Collapsed - Natural Disaster - таба, видео

Печатать
Просмотров: 82
Intro: 8 times on clean then 8 times on distortion on last one let ring.
Drums enter when the distortion does
|---------------------------------------------------|
|---------------------------------------------------|
|---------------------------------------------------|
|---------------------------------------------------|
|--7-7-7-5-5-5-3-3-3-2-2-2-2-2-2-2-2----------------|
|--0-0-0-0-0-0-0-0-0-0-0-0-0-0-0-0-0----------------|
Verse play 8 times distorted(play each chord 8 times palm muted)
|-------------------------|
|-------------------------|
|-------------------------|
|--2----4-----6-----7-----|
|--2----4-----6-----7-----|
|--0----2-----4-----5-----|
Chorus play twice
|------------------------------------------------------------|
|------------------------------------------------------------|
|------------------------------------------------------------|
|--4-----------7----------4-----------7--------6-------------|
|--4-x16-------7---x16----4—x16-------7-x14----6---x2--------|
|--2-----------5----------2-----------5--------4-------------|

Play 4 times after Chorus
|---------------------------------------------------|
|---------------------------------------------------|
|---------------------------------------------------|
|---------------------------------------------------|
|--7-7-7-5-5-5-3-3-3-2-2-2-2-2-2-2-2----------------|
|--0-0-0-0-0-0-0-0-0-0-0-0-0-0-0-0-0----------------|
Verse play 8 times distorted(play each chord 8 times palm muted)
|--------------------------|
|--------------------------|
|--------------------------|
|--2----4-----6-----7------|
|--2----4-----6-----7------|
|--0----2-----4-----5------|
Chorus play twice
|------------------------------------------------------------|
|------------------------------------------------------------|
|------------------------------------------------------------|
|--4-----------7----------4-----------7--------6-------------|
|--4-x16-------7---x16----4—x16-------7-x14----6---x2--------|
|--2-----------5----------2-----------5--------4-------------|
Добавлено: 04.07.2012
Другие материалы по этой песне:
  • Аккорды и текст

Страница создана 04.07.2012
http://primanota.ru/collapsed/natural-disaster-chords.htm
Привет, Гость.
Предлагаем пройти революционный курс по гитаре.
Подарок от PrimaNota.Ru, забирай!