PrimaNota.ru - самый крупный в мире бесплатный архив песенных текстов, аккордов, табулатур и нот


Colin Stetson Sarah Nuefeld - Wont Be A Thing To Become - бас-таба, видео

Регистрация Запомнить меня
Войти через:  Facebook Google Twitter Vk Yandex Mail.ru

Colin Stetson Sarah Nuefeld - Wont Be A Thing To Become - бас-таба, видео

Печатать
Просмотров: 81
Уроки эстрадного вокала в Санкт-Петербурге
-------------------------------------------------------------------------------     
       Won't Be a Thing to Become - Colin Stetson, Sarah Nuefeld
-------------------------------------------------------------------------------
Tabbed by: lithiumfaux


Notes:  This song is originally played on saxophone, but I wanted to play along with my electric bass, so 
here is a bass tab for the saxophone part.


Tuning: Standard (E A D G)

Part 1                              x16
G|----------------------------------|
D|---9------14----9------10---------|
A|-----10-----------10--------------|
E|--------12-----------8------------|

Part 2                             x4                Then Part 1
G|-------|-----------------------------|--------------------|
D|--9----|---9-----5-----5---4---------|-4----9---7-----10--|
A|----10-|-----------7---------7-------|---7-------10-------|
E|-------|-7-----------5---------------|-----7-------8------|

All this x2

Ending - Repeat
G|-------------------|
D|--9------10--------|
A|----10-------------|
E|-------8-----------|


************************************

| /   slide up
| \   slide down
| h   hammer-on
| p   pull-off
| ~   vibrato
| +   harmonic
| x   Mute note
| b   Bend
| pb  Pre-bend
| br  Bend release
| pbr Pre-bend release
| brb Bend release bend

************************************
Добавлено: 21.11.2015
Другие материалы по этой песне:
  • Аккорды и текст

Страница создана 21.11.2015
http://primanota.ru/colin-stetson-sarah-nuefeld/wont-be-a-thing-to-become-chords.htm
Привет, Гость.
Предлагаем пройти революционный курс по гитаре.
Подарок от PrimaNota.Ru, забирай!