PrimaNota.ru - самый крупный в мире бесплатный архив песенных текстов, аккордов, табулатур и нот


Colin Sneed - Tv Land - таба, видео

Регистрация Запомнить меня
Войти через:  Facebook Google Twitter Vk Yandex Mail.ru

Colin Sneed - Tv Land - таба, видео

Печатать
Просмотров: 25
https://colinsneed.bandcamp.com/album/mood-killer

Intro/Pre-verse: Lead x8
e|------------------------------|
B|------------------------------|
G|12-14-14-12-14bv-14bv <-------| ('bv' is a bend-vibrato, basically just a vibrato.)
D|------------------------------|
A|------------------------------|
E|------------------------------|

Pre-verse: Bass x2
G|--------------------------------------------------------------------------------|
D|--------------------------------------------------------------------------------|
A|--------------------------------------------------------------------------------|
E|5-5-5-5-5-5-5-5-8-8-8-8-8-8-8-8-10-10-10-10-10-10-10-10-12-12-12-12-12-12-12-12-|

Verse: x4
e|--------------------------------|
B|--------------------------------|
G|--------------------------------|
D|7-7-7-7-3-3-3-3-4-4-4-4-4-4-4-4-|
A|7-7-7-7-3-3-3-3-4-4-4-4-4-4-4-4-|
E|5-5-5-5-1-1-1-1-2-2-2-2-2-2-2-2-|

Chorus: x4
e|------------------------------------|
B|------------------------------------|
G|------------------------------------|
D|12-12-12-12-111111119-9-9-9-9-9-9-9-|
A|12-12-12-12-111111119-9-9-9-9-9-9-9-|
E|10-10-10-10-9-9-9-9-7-7-7-7-7-7-7-7-|

Outro: x2
e|------------------------------------------------------------|
B|------------------------------------------------------------|
G|------------------------------------------------------------|
D|4-4-4--7-7-7-7-4-4-4--7-7-7-7-3-3-3--7-7-7-7-3-3-3--7-7-7-7-|
A|4-4-4--7-7-7-7-4-4-4--7-7-7-7-3-3-3--7-7-7-7-3-3-3--7-7-7-7-|
E|2-2-2--5-5-5-5-2-2-2--5-5-5-5-1-1-1--5-5-5-5-1-1-1--5-5-5-5-|

Intro
Verse
Chorus
Preverse
Verse
Chorus Outro
Добавлено: 22.10.2015
Другие материалы по этой песне:
  • Аккорды и текст

Страница создана 22.10.2015
http://primanota.ru/colin-sneed/tv-land-chords.htm
Привет, Гость.
Предлагаем пройти революционный курс по гитаре.
Подарок от PrimaNota.Ru, забирай!