PrimaNota.ru - самый крупный в мире бесплатный архив песенных текстов, аккордов, табулатур и нот


Colin Sneed - Have You Found Your Cat - таба, видео

Регистрация Запомнить меня
Войти через:  Facebook Google Twitter Vk Yandex Mail.ru

Colin Sneed - Have You Found Your Cat - таба, видео

Печатать
Просмотров: 26
https://colinsneed.bandcamp.com/album/mood-killer
He's a sick dude, makes some rad music.

Verse:
e|---------------------------------------|
B|---------------------------------------|
G|---------------------------------------|
D|7------2---5-------7-6---------7-6-----|
A|7------2---5-----------5-3---------5-3-|
E|5------0---3----5-----------5----------|

Chorus: Rhythm
e|-----------------------------------------------------------------|
B|-----------------------------------------------------------------|
G|-----------------------------------------------------------------|
D|10101010101010101010101010101010-7-8-7-5-8-8-7-7-7-7-7-7-7-7-7-7-|
A|10101010101010101010101010101010-7-8-7-5-8-8-7-7-7-7-7-7-7-7-7-7-|
E|8-8-8-8-8-8-8-8-8-8-8-8-8-8-8-8--5-6-5-3-6-6-5-5-5-5-5-5-5-5-5-5-|

Chorus: Lead
e|-------------------------------------------------------------------------|
B|--------------------------------------------------------1717171717171717-|
G|77777777999999991212121212121212141414141414141419191919-----------------|
D|-------------------------------------------------------------------------|
A|-------------------------------------------------------------------------|
E|-------------------------------------------------------------------------|

Outro:
e|---------------|
B|---------------|
G|---------------|
D|7-8-7-5-8-7----|
A|7-8-7-5-8-7----|
E|5-6-5-3-6-5----|
Добавлено: 22.10.2015
Другие материалы по этой песне:
  • Аккорды и текст

Страница создана 22.10.2015
http://primanota.ru/colin-sneed/have-you-found-your-cat-chords.htm
Привет, Гость.
Предлагаем пройти революционный курс по гитаре.
Подарок от PrimaNota.Ru, забирай!