PrimaNota.ru - самый крупный в мире бесплатный архив песенных текстов, аккордов, табулатур и нот


Colin Sneed - Bad Sole - таба, видео

Регистрация Запомнить меня
Войти через:  Facebook Google Twitter Vk Yandex Mail.ru

Colin Sneed - Bad Sole - таба, видео

Печатать
Просмотров: 22
https://colinsneed.bandcamp.com/album/mood-killer
This is definitely one of the coolest songs on the album, dark and whatnot.
(THIS MAY NOT BE CORRECT OR DEAD ON, BUT ITS AT LEAST CONTAINING THE FLOW.)

Intro/Chorus:
e|----------------------------|
B|----------------------------|
G|--(9-9)---------------------| <--- The diminished chord sounds like it is there, but I can't be sure...)
D|--(8-8)---------------------| <---
A|----------------5-6-7-------|
E|0--5-5-0--3--5---------5-4-3|

Verse:
e|------------------------------------|
B|------------------------------------|
G|------------------------------------|
D|--4-6(7)----------------------------| <--- (Pretty sure a few times it had alternated between the two notes.)
A|5-------7-7-7-7---6-6-6-6--7-7-7-7--|
E|------------------------------------|

Break/Bridge thing:
e|-----------------|
B|-----------------|
G|-----------------|
D|6-----/5---/4----|
A|5-----/4---/3----|
E|-----------------|

Intro x4
Verse x4
Break x1
Verse x4
Chorus x4
Добавлено: 22.10.2015
Другие материалы по этой песне:
  • Аккорды и текст

Страница создана 22.10.2015
http://primanota.ru/colin-sneed/bad-sole-chords.htm
Привет, Гость.
Предлагаем пройти революционный курс по гитаре.
Подарок от PrimaNota.Ru, забирай!