PrimaNota.ru - самый крупный в мире бесплатный архив песенных текстов, аккордов, табулатур и нот


Colin Newman - Alone - таба, видео

Регистрация Запомнить меня
Войти через:  Facebook Google Twitter Vk Yandex Mail.ru

Colin Newman - Alone - таба, видео

Печатать
Просмотров: 59
Авторы: Colin Newman, Graham Lewis

Main Riff (Repeats over whole song)

e|---------------------------------------------------------------------------|
B|-3---0-3-0-3-0---3---0-3-0-3-0---3---0-3-0-3-0---3---0-3-0-3-0-------------|
G|---------------------------------------------------------------------------|
D|---------------------------------------------------------------------------|
A|-2---------------0---------------------------------------------------------|
E|---------------------------------3---------------3-------------------------|


Verse 1
Bm   A    G
   Alone, alone,

Bm        A        G
   with too much generosity

Bm    A      G
   A theatre mask

Bm       A        G
   of hostility attracts


Bridge 
F#            G    A  Bm
   Assaults occur, unfrequently

    A                     G
And those who come, to conquer

     G
Need strength

F#            G
   The damage accumulates


Verse 2
A     Bm     A      G
Still moving him to tears

Bm   A               G
   Retained a sense of humour

  Bm    A           G
Retained a sense of humour

The last line repeats a few times then
switches to Colin singing "Ooos." 


Outro Melody 1
e|-2----------0------------0-2-0-------|
B|-----------------------3-------3-----|
G|-------------------------------------|
D|-------------------------------------|
A|-------------------------------------|
E|-------------------------------------|

Outro Melody 2 (Played overtop Mel. 1 after a few measures)
e|--------------------------5---3---2---| 
B|-0-2-3---2---3---2---3----------------|
G|--------------------------------------|
D|--------------------------------------|
A|--------------------------------------|
E|--------------------------------------|

During the Bridge I think the bass notes of the Main Riff are
changed to reflect the chord progression during the Bridge.
Добавлено: 16.07.2015
Другие материалы по этой песне:
  • Аккорды и текст

Страница создана 16.07.2015
http://primanota.ru/colin-newman/alone-chords.htm
Привет, Гость.
Предлагаем пройти революционный курс по гитаре.
Подарок от PrimaNota.Ru, забирай!