PrimaNota.ru - самый крупный в мире бесплатный архив песенных текстов, аккордов, табулатур и нот


Colin James - Standing On The Edge - бас-таба, видео

Регистрация Запомнить меня
Войти через:  Facebook Google Twitter Vk Yandex Mail.ru

Colin James - Standing On The Edge - бас-таба, видео

Печатать
Просмотров: 41
-----------------------------------------------------------------------------
                                          Artist - Colin James
                                         **********************
                                       Song - Standing On The Edge  
                                      *****************************
                                        Album - Bad Habits (1995)   
                                       ***************************
                                          Tabbed By - Ayreon77
                                         **********************
-----------------------------------------------------------------------------
Tuning = Standard


INTRO
******
G|---|---------|-------|
D|---|-----5---|-----5-|
A|-3-|-3-6---3-|-3-6---|
E|---|---------|-------|


---------------------------------------
VERSE 1
********
G|---|---------|---------|---------|---------|---------|---------|-------------|-------|
D|---|-----5---|---------|---------|-----5---|-----5---|---------|-----5-------|-------|
A|-3-|-3-6---3-|-3-------|-----1-3-|-3-6---3-|-3-6-----|---1-2-3-|-3-6---------|-------|
E|---|---------|---3-2-1-|-1-4-----|---------|-------3-|-3-------|-------3-3-5-|-6-6-7-|


---------------------------------------
VERSE 2
********
G|---|---------|---------|---------|---------|---------|---------|----------------|---------|
D|---|-----5---|-----5---|---------|-----5---|-----5---|---------|-----5----------|---------|
A|-3-|-3-6---3-|-3-6-----|-----1-3-|-3-6---3-|-3-6-----|---1-2-3-|-3-6------------|---------|
E|---|---------|-------1-|-1-4-----|---------|-------3-|-3-------|--------3-3-5-5-|-6-6-7-7-|


---------------------------------------
CHORUS
*******
G|---|---------|---|-------|---------|---------|---------|---------|-------------|---------|
D|---|---------|---|-------|---------|---------|---------|---------|-----5-------|---------|
A|-3-|-3---1-3-|-3-|-------|-----1-3-|-3---1-3-|-3---3---|---1-2-3-|-3-6---------|-----8---|
E|---|---3-----|---|-3-2-1-|-1-4-----|---3-----|---3---3-|-3-------|-------3-3-5-|-6-6---7-|


---------------------------------------
VERSE 3
********
G|---|---------|---------|---------|---------|---------|---------|-------------|-------|
D|---|-----5---|---------|---------|-----5---|---------|---------|-----5-------|-------|
A|-3-|-3-6---3-|-3---1---|-----1-3-|-3-6---3-|-3---3---|---1-2-3-|-3-6---------|-------|
E|---|---------|---3---1-|-1-4-----|---------|---3---3-|-3-------|-------3-3-5-|-6-6-7-|


---------------------------------------
VERSE 4
********
G|---|---------|---------|---------|---------|---------|---------|---------------|---------|
D|---|-----5---|---------|---------|---------|---------|---------|-----5---------|---------|
A|-3-|-3-6---3-|-3-------|-----1-3-|-3---1-3-|-3---3---|---1-2-3-|-3-6-----------|-----8---|
E|---|---------|---3-2-1-|-1-4-----|---3-----|---3---3-|-3-------|-------3-3-5-5-|-6-6---7-|


---------------------------------------
VERSE 5
********
G|---|---------|---|-------|---------|---------|---------|---------|---------------|---------|
D|---|-----5---|---|-------|---------|-----5---|---------|---------|-----5---------|---------|
A|-3-|-3-6---3-|-3-|-------|-----1-3-|-3-6---3-|-3---3---|---1-2-3-|-3-6-----------|-----8---|
E|---|---------|---|-3-2-1-|-1-4-----|---------|---3---3-|-3-------|-------3-3-5-5-|-6-6---7-|


---------------------------------------
SOLO
G|---|---------|---------|---------|---------|---------|---------|----------------|---------|
D|---|-----5---|---------|---------|-----5---|---------|---------|-----5----------|---------|
A|-3-|-3-6---3-|-3-------|-----1-3-|-3-6---3-|-3---3---|---1-2-3-|-3-6------------|---------|
E|---|---------|---3-2-1-|-1-4-----|---------|---3---3-|-3-------|--------3-3-5-5-|-6-6-7-7-|


---------------------------------------
CHORUS
*******
G|---|---------|---|-------|---------|---------|---------|---------|-----------------|---------|
D|---|---------|---|-------|---------|---------|---------|---------|-----------------|---------|
A|-3-|-3---1-3-|-3-|-------|-----1-3-|-3---1-3-|-3---3---|---1-2-3-|-3---3-2---------|---------|
E|---|---3-----|---|-3-2-1-|-1-4-----|---3-----|---3---3-|-3-------|---3-----3-3-5-5-|-6-6-7-7-|


---------------------------------------
OUTRO
******
G|---|---------|-----------|---------|---------|-----------|-----------|
D|---|-----5---|-----------|---------|-----5---|-----------|-----------|
A|-3-|-3-6---3-|-3---2-----|-----1-3-|-3-6---3-|-3---3-1---|---1---2-3-|
E|---|---------|---3---2-1-|-1-4-----|---------|---3-----3-|-3---3-----|



ENJOY...........
Добавлено: 20.05.2016
Другие материалы по этой песне:

Страница создана 20.05.2016
http://primanota.ru/colin-james/standing-on-edge-chords.htm
Привет, Гость.
Предлагаем пройти революционный курс по гитаре.
Подарок от PrimaNota.Ru, забирай!