PrimaNota.ru - самый крупный в мире бесплатный архив песенных текстов, аккордов, табулатур и нот


Colin Edwin - A Drivers Logic - бас-таба, видео

Регистрация Запомнить меня
Войти через:  Facebook Google Twitter Vk Yandex Mail.ru

Colin Edwin - A Drivers Logic - бас-таба, видео

Печатать
Просмотров: 82
Colin uses a fretless bass  on this tune

G---------------------------------------------------------------------------------|
D---------------------------------------------------------------------------------|
A-------5-7-----7-------9-10----7-------9/10-10\--7-------------3----3/5\2 2------|
E-0---------------7---------------7----------------------7\3----------------------|


G---------------------------------------------------------------------------------------------|
D-----------------5\-----------------------------------------------------------5\-------------|
A----------5---3-----2-2--------------3----3----2-2--3-------------------5---3------2 5 
3 2 2-|
E-0---2-3----3-----------3-2-0---2-3-----3---3--------2-3-0---2-3-3--------3------------------|


G-----------------------------------------------------------------------------------|
D-----------------------------------------------------------------------------------|
A-----------------------------------------------------------------------------------|
E-33333333-5-2-0-----33333333-5-2-0-----33333333-5-2-0-----33333333-5-2-0-----------|


G-----------5-7-9\---5---5----4--7-5-------------------5-7-9\----5-5--7-5-------7-5-----------|
D-------5-7------------5-----4-------7-5-----------5-7--------------------7-9-------7-5-------|
A-7--------------------------------------9-----7----------------------------------------------|
E---7--------------------------------------------7----------------------------------------5---|


G-----------5-7-9\---5-5---7-5------7-5---------------5-7-9\---5-5--7-5---------------------|
D-------5-7-------------------7-9-------7-5-------5-7--------------------7-9^7^9^7^9^7------|
A-7------------------------------------------7-----------------------------------------9\---|
E---7------------------------------------------7--------------------------------------------|


G-----------------------------------------------------------------------------------|
D-----------------------------------------------------------------------------------|
A-----------------------------------------------------------------------------------|
E-33333333-5-2-0-----33333333-5-2-0-----33333333-5-2-0-----33333333-5-2-0-----------|


G-----------------------------------------------------------------------------------------------|
D------------------------------------------------------------9----------------------------------|
A---7---9-10-10--------7---9-10-10-9-10^9-------7---9-10-10----10^9-------7---9-10-10-9-10------|
E-7------------10\---7-------------------10---7--------------------10---7-----------------------|


G----------5-7-9\---5-5---7-5-------7-5------------------5-7-9\---5---5-7-5--------------------|
D------5-7--------------------7-9-------7-5----------5-7-----------5--------9---7-5------------|
A-7--------------------------------------------7-----------------------------------------------|
E---7--------------------------------------5-----7---------------------------------5-----------|


G-----------------------------------------------------------------------------------|
D-----------------------------------------------------------------------------------|
A-----------------------------------------------------------------------------------|
E-33333333-5-2-0-----33333333-5-2-0-----33333333-5-2-0-----33333333-5-2-0-----------|


G-----------------------------------------------------------------------------------|
D------------------------9----------------------------------------------------------|
A-7---9-10-10-9-10\---7----9-10-10-9-10\-------7---9-10--9--8--7--------------------|
E--------------------------------------------7-------------------0---0--------------|
Добавлено: 29.06.2013
Другие материалы по этой песне:
  • Аккорды и текст

Страница создана 29.06.2013
http://primanota.ru/colin-edwin/a-drivers-logic-chords.htm
Привет, Гость.
Предлагаем пройти революционный курс по гитаре.
Подарок от PrimaNota.Ru, забирай!