PrimaNota.ru - самый крупный в мире бесплатный архив песенных текстов, аккордов, табулатур и нот


Colin Blunstone - The Eagle Will Rise Again - аккорды и текст, видео

Регистрация Запомнить меня
Войти через:  Facebook Google Twitter Vk Yandex Mail.ru

Colin Blunstone - The Eagle Will Rise Again - аккорды и текст, видео

Печатать
Просмотров: 229
The Eagle Will Rise Again
Colin Blunstone
Artist: Colin Blunstone / Alan Parsons Project
Song: The eagle will rise again
Tabbed by:DJ

Tuning:Standard
Capo: 1st fret (Sounds in the key of A#m)

   Am7            Em7             (E)    Dm7           Em7
e|---------------|---------------------|---1----1--1--|--------------------|
B|---1----1--1---|--3------------------|---1----1--1--|--3-----------------|
G|---0----0--0---|--0---0--0-----0--2--|--------------|--0---0--0----0--2--|
D|---------------|--2----------2-------|---0----0--0--|--2---------2-------|
A|---0----0--0---|---------------------|--------------|--------------------|
E|---------------|---------------------|--------------|--------------------|

    Am7            Em7             (E)    Am7               Em7
e|---0----0--0---|---------------------|-----------3-----|------------0----|
B|---1----1--1---|--3------------------|-----------1-----|------------3----|
G|---------------|--0---0--0-----0--2--|--------2--------|------------0----|
D|---------------|--2---------2--------|-----2-----------|--------2--------|
A|---0----0--0---|---------------------|--0--------------|-----2-----------|
E|---------------|---------------------|-----------------|--0--------------|

     Dm7           Em7                   Am7               Em7
e|------------1---|------------0-------|-----------3-----|------------0----|
B|---------1--1---|------------3-------|-----------1-----|------------3----|
G|------2-----2---|------------0-------|--------2--------|------------0----|
D|---0------------|--------2-----------|-----2-----------|--------2--------|
A|----------------|-----2--------------|--0--------------|-----2-----------|
E|----------------|--0-----------------|-----------------|--0--------------|

     Dm7            Em7
e|------------1---|------------0-------|
B|---------1--1---|------------3-------|
G|------2-----2---|------------0-------|
D|---0------------|--------2-----------|
A|----------------|-----2--------------|
E|----------------|--0-----------------|

 
   Am7         Em7              Dm7
And I...could easily fall from grace, 
          Em7                 F7M              G                   Am7  Em7 
Then a - nother would take my place, for the chance to behold your face,
         Am7         Em7                     Dm7
And the days...of my life are but grains of sand, 
        Em7                 Fma7         G                       Am7   Em7
As they fall from your open hand,at the call of the wind's com - mand!


Bm7                                E7sus4     E7
Many words are spoken when there's nothing to say, 
     Am7                
They fall upon the ears of those...
      D7sus4          D7     Dm7/G
...Who don't know the way to read between the lines,      
      G7                           Em7        Am
That lead between the lines...that lead me to you!


C#m7b5       F#7          Bm7                            E7sus4   E7
  All that I ask you...is show me how to follow you, and I'll o - bey,
Am7                               D7sus4       D7             
Teach me how to reach you, I can't find my own way, 
Dm7/G                  G7
 Let me see the light, let me be the light!


    Am7            Em7               Dm7             Em7
e|-----------3---|------------0----|-----------1---|------------0---|
B|-----------1---|------------3----|-------1---1---|------------3---|
G|--------2------|------------0----|-----2-----2---|------------0---|
D|-----2---------|--------2--------|--0------------|--------2-------|
A|--0------------|-----2-----------|---------------|-----2----------|
E|---------------|--0--------------|---------------|--0-------------|

 
       Am7          Em7              Dm7           Em7              F7M  
As the sun...turns slowly around the sky,'til the shadow of night is high, 
      G                 Am7   Em7 
The eagle will learn to fly,
        Am7           Em7                    Dm7
And the days...of his life are but grains of sand, 
        Em7                F7M          G                Am7   Em7
As they fall from your open hand, and vanish upon... the land!


Bm7                                E7sus4     E7
Many words are spoken when there's nothing to say, 
     Am7                
They fall upon the ears of those...
      D7sus4          D7     Dm7/G
...Who don't know the way to read between the lines,      
      G7                        Dm7  Am
By following the signs that can lead to you!


     Dm7                          G7sus4    G7(type2)
But show me how to follow you, and I'll o - bey,
Gm7                                C7sus4      C7             
Teach me how to reach you, I can't find my own way, 
C#m7b5                  F#7           
  Let me see the light, let me be the light!

    Bm7              F#m7         
e|------------5---|-------------2----|
B|------------3---|-------------5----|
G|---------2--2---|-------------2----|
D|------4---------|---------4--------|
A|---2------------|------4-----------|
E|----------------|---2--------------|

    Bm7            F#m7                  Em7
And so...with no warning, no last good - bye,
       F#m7               G7M         A                 Bm7      Bm7
In the dawn of the morning sky, the eagle will rise a - gain!
  
************************************

Am7      =  x02213
Em7      =  022030
Dm7      =  xx0211
F7M      =  103210
G        =  230033
Bm7      =  x24235
E7sus4   =  020200
E7       =  020100
D7sus4   =  xx0213
D7       =  xx0212
Dm7/G    =  300211
G7       =  320001
C#m7b5   =  x42000
F#7      =  242322
G7sus4   =  353533
G7(type2)=  353433
Gm7      =  353333
C7sus4   =  x35363
C7       =  x35353
F#m7     =  244252
G7M      =  320002
Добавлено: 05.09.2013
Другие материалы по этой песне:
  • Аккорды и текст

Страница создана 05.09.2013
http://primanota.ru/colin-blunstone/the-eagle-will-rise-again-chords.htm
Привет, Гость.
Предлагаем пройти революционный курс по гитаре.
Подарок от PrimaNota.Ru, забирай!