PrimaNota.ru - самый крупный в мире бесплатный архив песенных текстов, аккордов, табулатур и нот


Colin Bass - Denpasar Moon - аккорды и текст, видео

Регистрация Запомнить меня
Войти через:  Facebook Google Twitter Vk Yandex Mail.ru

Colin Bass - Denpasar Moon - аккорды и текст, видео

Печатать
Просмотров: 82
Denpasar Moon
Colin Bass
-----------------------------------------------------------------------------
                                          Artist - Colin Bass
                                         *********************
                                          Song - Denpasar Moon 
                                         **********************
                                Album - An Outcast of the Islands (1999)  
                               ******************************************
                                          Tabbed By - Ayreon77
                                         **********************
-----------------------------------------------------------------------------
Tuning = Standard


INTRO
****** 
  Am                F       Am                F          Whammy
e|-------------0---|-------|-------------0---|----------1/\/\/\-|
B|-------0-1-----0-|-----0-|-------0-1-----0-|-----0-1--2/\/\/\-|
G|-----2-----------|---2---|-----2-----------|---4------3/\/\/\-|
D|---2-------------|-3-----|---2-------------|-3--------3/\/\/\-|
A|-0---------------|-------|-0---------------|------------------|
E|-----------------|-------|-----------------|------------------|

---------------------------
CHORUS
*******
         Am            F           Am
Denpasar Moon, shining on an empty street
e|-----------|
B|-----------|
G|-----------|
D|---0-2-----|
A|-3-----3-0-|
E|-----------|

    F           G                Am
I return to the place we used to meet
e|---0-------|
B|-1---1-0---|
G|---------2-|
D|-----------|
A|-----------|
E|-----------|

         F                Dm               Am
Denpasar moon, shine your light and let me see
e|-----------|
B|-----------|
G|-----------|
D|---0-2-----|
A|-3-----3-0-|
E|-----------|

        F             G                 Am
That my love is still waiting there for me
e|-------0---|
B|---0-1-----|
G|-2-------2-|
D|-----------|
A|-----------|
E|-----------|             
    
  ACOUSTIC                                   
  F         G         Am                F         G           Am
e|---------|---------|-0-|-------------|---------|---------|---0--------|
B|-----0-1-|-------3-|-1-|-------------|-----0-1-|-------3-|---1--------|
G|---2-----|---4-5---|-2-|-------------|---2-----|---4-5---|---2--------|
D|-3-------|-5-------|-2-|-------------|-3-------|-5-------|---2--------|
A|---------|---------|---|-------------|---------|---------|------------|
E|---------|---------|---|-------------|---------|---------|------------|
 |                                                                      |
 |ELECTRIC                                                      br      |
e|-------------------------12-13-15-12-|--------17-|------19-|-19-17----|
B|-------------------------------------|-----------|---------|-------17-|
G|-------------------------------------|-----------|---------|----------|
D|-------------------------------------|-----------|---------|----------|
A|-------------------------------------|-----------|---------|----------|
E|-------------------------------------|-----------|---------|----------|


---------------------------
VERSE 1
********
F     G                Am
    I saw you standing there
e|-----------|
B|--------h--|
G|----h--0-2-|
D|---0-2-----|
A|-3---------|
E|-----------|

            F      G                Am
Through the rain I saw you turn and smile
e|-------------|
B|-----3-5-6-5-|
G|-4-5---------|
D|-------------|
A|-------------|
E|-------------|

F             Em        Am
    Where you waving to me?
e|-5--8-7---|
B|-5------8-|
G|----------|
D|----------|
A|----------|
E|----------|

            F       G              Am
Through the rain, I ran across the street
e|-------|
B|-------|
G|--h----|
D|-5-7---|
A|-----5-|
E|-------|

C              Dm              Am
  But you were gone, there was no one
e|-------|
B|--h----|
G|-4-5-2-|
D|-------|
A|-------|
E|-------|

        F        G       Em
You had vanished with my dreams
e|-------------------------------7/\/\-|
B|-------------------------------8/\/\-|
G|-------------------------------9/\/\-|
D|-------------------------------9/\/\-|
A|-------------------------------------|
E|-------------------------------------|


---------------------------
CHORUS
*******
         Am            F           Am
Denpasar Moon, shining on an empty street
e|-----------|
B|--h---h--5-|
G|-4-5-4-5---|
D|-----------|
A|-----------|
E|-----------|
    F           G                Am
I return to the place we used to meet
e|-----------|
B|---5-------|
G|-5---5-4-2-|
D|-----------|
A|-----------|
E|-----------|
         F                Dm               Am
Denpasar moon, shine your light and let me see
e|-----------|
B|---------5-|
G|-4-5-4-5---|
D|-----------|
A|-----------|
E|-----------|
        F             G                 Am
That my love is still waiting there for me
e|---------|------------|-------------------------|
B|-----0-1-|----------3-|-----------------5-------|
G|---3-----|----------0-|---------------5---5-4-2-|
D|-4-------|------------|-------------------------|
A|---------|------------|-------------------------|
E|---------|------------|-------------------------|


---------------------------
SOLO - F G Em Am X4
*****                                                                          h
e|-8--------|--s------s------|-8--------|------------|-12-8----10-|-------10-10-12-------------|
B|---10-----|-8\10--10\12-10-|---10-----|------s---8-|------10----|-12-13----------13-13-12-10-|
G|------9-7-|----------------|------9-7-|-5-7-7\9----|------------|----------------------------|
D|----------|----------------|----------|------------|------------|----------------------------|
A|----------|----------------|----------|------------|------------|----------------------------|
E|----------|----------------|----------|------------|------------|----------------------------|


e|-12-8-----10-|-------10--------10---------|
B|-------10----|-12-13-----12-13-----13--10-|
G|-------------|----------------------------|
D|-------------|----------------------------|
A|-------------|----------------------------|
E|-------------|----------------------------|


---------------------------
VERSE 2
********
e|---------|---------|-----------------|   |-------|-------|---0---|---0---|-------0-------0-|-------0------7/\|
B|---------|---------|---------------5-|   |---1---|---3---|-----1-|-----1-|-----1-------1---|-----0---0----8/\|
G|----2--5-|----4--7-|----0--4-0-2-5---|   |-----2-|-----4-|-2-----|-2-----|---2-------2-----|---0-------0--9/\|
D|-3-------|-5-------|-2---------------|   |-3-----|-5-----|-------|-------|-3-------3-------|-2------------9/\|
A|---------|---------|-----------------|   |-------|-------|-------|-------|-----------------|-----------------|
E|---------|---------|-----------------|x2 |-------|-------|-------|-------|-----------------|-----------------|
             F      G            Em
But you were gone,     there was no one
Am            F      G         Em
     You were gone,     flying homeward
Am            F      G            Em
     You were gone,     there was no one
Am           F                Em      G         
     You had vanished with my dreams


---------------------------
CHORUS
*******
              Am            F          Am
Then Denpasar Moon, shining   an empty street
e|-----------|
B|---------5-|
G|-4-5-4-5---|
D|-----------|
A|-----------|
E|-----------|
    F           G                Am
I return to the place we used to meet
e|-----------|
B|---5-------|
G|-5---5-4-2-|
D|-----------|
A|-----------|
E|-----------|
         F                Dm               Am
Denpasar moon, shine your light and let me see
e|-----------|
B|---------5-|
G|-4-5-4-5---|
D|-----------|
A|-----------|
E|-----------|
        F             G                 Am
That my love is still waiting there for me
e|-----------|
B|---5-------|
G|-5---5-4-2-|
D|-----------|
A|-----------|
E|-----------|
        F             G                 Am
That my love is still waiting there for me
e|-----------|
B|---5-------|
G|-5---5-4-2-|
D|-----------|
A|-----------|
E|-----------|
              Am      Em   Am  
Then Denpasar Mooooooooooooooon, 


https://en.wikipedia.org/wiki/Colin_Bass


ENJOY................
Добавлено: 28.11.2015
Другие материалы по этой песне:
  • Аккорды и текст

Страница создана 28.11.2015
http://primanota.ru/colin-bass/denpasar-moon-chords.htm
Привет, Гость.
Предлагаем пройти революционный курс по гитаре.
Подарок от PrimaNota.Ru, забирай!