PrimaNota.ru - самый крупный в мире бесплатный архив песенных текстов, аккордов, табулатур и нот


Colera - Dia E Noite Noite E Dia - таба, видео

Регистрация Запомнить меня
Войти через:  Facebook Google Twitter Vk Yandex Mail.ru

Colera - Dia E Noite Noite E Dia - таба, видео

Печатать
Просмотров: 112
-------------------------------------------------------------------------------
Dia E Noite, Noite E Dia - Cólera
Caos Mental Geral
-------------------------------------------------------------------------------
Cólera Website: http://en.wikipedia.org/wiki/C%C3%B3lera

Tabbed by: axeslash
Email: holmzito@yahoo.com

Tuning: Standard for both guitars guitars

Guitar 1:                                                 Guitar 2:
e|-------------------------------------------------|      e|------------------------|
B|-------------------------------------------------|      B|------------------------|
G|-------------------------------------------------|      G|------------------------|
D|-9--9--9--9--9--9--9--9--9--9--9--9--9--9--9--9--|      D|-X-X-X-X-X-X-X-X--------|
A|-9--9--9--9--9--9--9--9--9--9--9--9--9--9--9--9--|      A|-X-X-X-X-X-X-X-X--------|
E|-7--7--7--7--7--7--7--7--7--7--7--7--7--7--7--7--| x16  E|-X-X-X-X-X-X-X-X--------|
  [x--x--x--x--x--x--x--x--x--x--x--x--x--x--x--x]        

Guitars 1 & 2:
e|---------------------------------------------------|
B|---------------------------------------------------|
G|-11--------11--------11--10--8--8----8-------------|
D|--9---11----9---11----9---8--6--6----6--9--9----9--|
A|-------9---------9----------------------7--7----7--|
E|---------------------------------------------------|

Guitars 1 & 2:
e|-------------------------------------------------------|
B|-------------------------------------------------------|
G|-11--------11------------------------------------------|
D|--9---11----9---11---8--9--11--11----11--11--11----11--|
A|-------9---------9---6--7---9---9-----9---9---9-----9--|
E|-------------------------------------------------------|

Guitars 1 & 2:
e|---------------------------------------------------|
B|---------------------------------------------------|
G|-11--------11--------11--10--8--8----8-------------|
D|--9---11----9---11----9---8--6--6----6--9--9----9--|
A|-------9---------9----------------------7--7----7--|
E|---------------------------------------------------|

Guitars 1 & 2:
e|-------------------------------------------|
B|-------------------------------------------|
G|-------------------------------------------|
D|-11--11----11--9---------------------------|
A|--9---9-----9--7----11----9----------------|
E|---------------------9----7----------------|

Guitars 1 & 2:                           Guitars 1 & 2:
e|---------------------------------|     e|-----------------------------------|
B|---------------------------------|     B|-----------------------------------|
G|---------------------------------|     G|-8----------------9----------------|
D|---------------------------------|     D|-8----------------9----------------|
A|-9-9-9-9-9-9-9-9-9-9-9-9-9-9-9-9-|     A|-6----------------7----------------|
E|-7-7-7-7-7-7-7-7-7-7-7-7-7-7-7-7-| x2  E|-----------------------------------|
  [x-x-x-x-x-x-x-x-x-x-x-x-x-x-x-x]

Guitars 1 & 2:                           Guitars 1 & 2:
e|---------------------------------|     e|-----------------------------------|
B|---------------------------------|     B|-----------------------------------|
G|---------------------------------|     G|-8----------------9----------------|
D|---------------------------------|     D|-8----------------9----------------|
A|-9-9-9-9-9-9-9-9-9-9-9-9-9-9-9-9-|     A|-6----------------7----------------|
E|-7-7-7-7-7-7-7-7-7-7-7-7-7-7-7-7-| x2  E|-----------------------------------|
  [x-x-x-x-x-x-x-x-x-x-x-x-x-x-x-x]

Guitars 1 & 2:
e|-------------------------------------------------|
B|-------------------------9--9-9---9--------------|
G|-------------8--8-8---8--8--8-8---8--9--9-9---9--|
D|-9--9-9---9--8--8-8---8--6--6-6---6--9--9-9---9--|
A|-9--9-9---9--6--6-6---6--------------7--7-7---7--|
E|-7--7-7---7--------------------------------------|

Guitars 1 & 2:
e|-----------------------------|
B|-----------------------------|
G|-------------11--11-11---11--|
D|-9--9-9---9--11--11-11---11--|
A|-9--9-9---9---9---9--9----9--|
E|-7--7-7---7------------------| x2

Guitars 1 & 2:                                    Guitars 1 & 2:
e|---------------------------------------------|  e|--------------------|
B|-------------------------9---9---9-----------|  B|--------------------|
G|-------------------------8---8---8--9--------|  G|----------11--------|
D|-------------8--8--8--8--6---6---6--9--------|  D|-9--------11--------|
A|-9--9--9--9--6--6--6--6-------------7--------|  A|-9---------9--------|
E|-7--7--7--7----------------------------------|  E|-7------------------| x2
  [x--x--x--x--x--x--x--x]

Guitars 1 & 2:                           Guitars 1 & 2:
e|---------------------------------|     e|-----------------------------------|
B|---------------------------------|     B|-----------------------------------|
G|---------------------------------|     G|-8----------------9----------------|
D|---------------------------------|     D|-8----------------9----------------|
A|-9-9-9-9-9-9-9-9-9-9-9-9-9-9-9-9-|     A|-6----------------7----------------|
E|-7-7-7-7-7-7-7-7-7-7-7-7-7-7-7-7-| x2  E|-----------------------------------|
  [x-x-x-x-x-x-x-x-x-x-x-x-x-x-x-x]

Guitars 1 & 2:                           Guitars 1 & 2:
e|---------------------------------|     e|-----------------------------------|
B|---------------------------------|     B|-----------------------------------|
G|---------------------------------|     G|-8----------------9----------------|
D|---------------------------------|     D|-8----------------9----------------|
A|-9-9-9-9-9-9-9-9-9-9-9-9-9-9-9-9-|     A|-6----------------7----------------|
E|-7-7-7-7-7-7-7-7-7-7-7-7-7-7-7-7-| x2  E|-----------------------------------|
  [x-x-x-x-x-x-x-x-x-x-x-x-x-x-x-x]

Guitars 1 & 2:
e|-------------------------------------------------|
B|-------------------------9--9-9---9--------------|
G|-------------8--8-8---8--8--8-8---8--9--9-9---9--|
D|-9--9-9---9--8--8-8---8--6--6-6---6--9--9-9---9--|
A|-9--9-9---9--6--6-6---6--------------7--7-7---7--|
E|-7--7-7---7--------------------------------------|

Guitars 1 & 2:
e|-----------------------------|
B|-----------------------------|
G|-------------11--11-11---11--|
D|-9--9-9---9--11--11-11---11--|
A|-9--9-9---9---9---9--9----9--|
E|-7--7-7---7------------------| x2

Guitars 1 & 2:                                    Guitars 1 & 2:
e|---------------------------------------------|  e|--------------------|
B|-------------------------9---9---9-----------|  B|--------------------|
G|-------------------------8---8---8--9--------|  G|----------11--------|
D|-------------8--8--8--8--6---6---6--9--------|  D|-9--------11--------|
A|-9--9--9--9--6--6--6--6-------------7--------|  A|-9---------9--------|
E|-7--7--7--7----------------------------------|  E|-7------------------| x2
  [x--x--x--x--x--x--x--x]

Guitars 1 & 2:                                    Guitars 1 & 2:
e|---------------------------------------------|  e|--------------------|
B|-------------------------9---9---9-----------|  B|--------------------|
G|-------------------------8---8---8--9--------|  G|----------11--------|
D|-------------8--8--8--8--6---6---6--9--------|  D|-9--------11--------|
A|-9--9--9--9--6--6--6--6-------------7--------|  A|-9---------9--------|
E|-7--7--7--7----------------------------------|  E|-7------------------| x2
  [x--x--x--x--x--x--x--x]

Guitars 1 & 2:
e|---------------------------------------------------|
B|---------------------------------------------------|
G|-11--------11--------11--10--8--8----8-------------|
D|--9---11----9---11----9---8--6--6----6--9--9----9--|
A|-------9---------9----------------------7--7----7--|
E|---------------------------------------------------|

Guitars 1 & 2:
e|-------------------------------------------------------|
B|-------------------------------------------------------|
G|-11--------11------------------------------------------|
D|--9---11----9---11---8--9--11--11----11--11--11----11--|
A|-------9---------9---6--7---9---9-----9---9---9-----9--|
E|-------------------------------------------------------|

Guitars 1 & 2:
e|---------------------------------------------------|
B|---------------------------------------------------|
G|-11--------11--------11--10--8--8----8-------------|
D|--9---11----9---11----9---8--6--6----6--9--9----9--|
A|-------9---------9----------------------7--7----7--|
E|---------------------------------------------------|

Guitar 1:
e|------------------------------------------------|
B|------------------------------------------------|
G|------------------------------------------------|
D|-11--11----11--9--------------------------------|
A|--9---9-----9--7----11----9---------------------|
E|---------------------9----7---------------------|
Guitar 2:
e|------------------------------------------------|
B|-----------------------------------9--7-9--7-9--|
G|------------------------------------------------|
D|-11--11----11--9--------------------------------|
A|--9---9-----9--7----11----9---------------------|
E|---------------------9----7---------------------|

Guitar 1:
e|-----------------------------------------------|
B|-----------------------------------------------|
G|-11--------------------------------------------|
D|-11----------------------9---------------------|
A|--9----------------------9---------------------|
E|-------------------------7---------------------|
Guitar 2:
e|-----------------------------------------------|
B|-----------------------------------------------|
G|-11--------9h11--9-----------------------------|
D|---------------------11--9--------9h11--9---8--|
A|-----------------------------------------------|
E|-----------------------------------------------|

Guitar 1:
e|-------------------|
B|-------------------|
G|-------------------|
D|-6-----------------|
A|-6-----------------|
E|-4-----------------|
Guitar 2:               
e|-------------------|
B|-------------------|
G|-------------------|
D|-------------------|
A|-11----------------|
E|-------------------|

Rest for 2 bars

Guitars 1 & 2:
e|-------------------------------------|
B|-------------------------------------|
G|-10----------------11----------------|
D|-10----------------11----------------|
A|--8-----------------9----------------|
E|-------------------------------------|

Rest for 2 bars

Guitars 1 & 2:
e|-------------------------------------|
B|-------------------------------------|
G|-10----------------11----------------|
D|-10----------------11----------------|
A|--8-----------------9----------------|
E|-------------------------------------|

Guitars 1 & 2:
e|-----------------------------------------------------------------|
B|---------------------------------11--10-10---10------------------|
G|-----------------10--10-10---10--10--10-10---10--10--10-10---10--|
D|-11--11-11---11--10--10-10---10---8---8--8----8--10--10-10---10--|
A|-11--11-11---11---8---8--8----8-------------------8---8--8----8--|
E|--9---9--9----9--------------------------------------------------|

Guitars 1 & 2:
e|---------------------------------|
B|---------------------------------|
G|-----------------13--13-13---13--|
D|-11--11-11---11--13--13-13---13--|
A|-11--11-11---11--11--11-11---11--|
E|-9---9--9----9-------------------| x2

Guitars 1 & 2:                                    
e|---------------------------------------------------------|  
B|---------------------------------11---11---11------------|  
G|---------------------------------10---10---10--10--------|  
D|-----------------10--10--10--10---8----8----8--10--------|  
A|-11--11--11--11---8---8---8---8-----------------8--------|  
E|--9---9---9---9------------------------------------------|  
   [x---x---x---x---x---x---x---x]

Guitars 1 & 2:
e|---------------------|
B|---------------------|
G|-----------13--------|
D|-11--------13--------|
A|-11--------11--------|
E|--9------------------| x2

Guitars 1 & 2:                                    
e|---------------------------------------------------------|  
B|---------------------------------11---11---11------------|  
G|---------------------------------10---10---10--10--------|  
D|-----------------10--10--10--10---8----8----8--10--------|  
A|-11--11--11--11---8---8---8---8-----------------8--------|  
E|--9---9---9---9------------------------------------------|  
   [x---x---x---x---x---x---x---x]

Guitars 1 & 2:
e|---------------------|
B|---------------------|
G|-----------13--------|
D|-11--------13--------|
A|-11--------11--------|
E|--9------------------| x2

Guitars 1 & 2:                                    
e|---------------------------------------------------------|  
B|---------------------------------11---11---11------------|  
G|---------------------------------10---10---10--10--------|  
D|-----------------10--10--10--10---8----8----8--10--------|  
A|-11--11--11--11---8---8---8---8-----------------8--------|  
E|--9---9---9---9------------------------------------------|  
   [x---x---x---x---x---x---x---x]

Guitars 1 & 2:
e|---------------------|
B|---------------------|
G|-----------13--------|
D|-11--------13--------|
A|-11--------11--------|
E|--9------------------| x2

Guitars 1 & 2:                                    
e|---------------------------------------------------------|  
B|---------------------------------11---11---11------------|  
G|---------------------------------10---10---10--10--------|  
D|-----------------10--10--10--10---8----8----8--10--------|  
A|-11--11--11--11---8---8---8---8-----------------8--------|  
E|--9---9---9---9------------------------------------------|  
   [x---x---x---x---x---x---x---x]

Guitars 1 & 2:
e|-----------------------------------------------------|
B|------------------------------------6----------------|
G|------------------------------------6----------------|
D|-11----------------6----------------6----------------|
A|-11----------------6----------------4----------------|
E|--9----------------4---------------------------------|

Guitars 1 & 2:
e|---------------------------------|
B|-6-6-6-6-6-6-6-6-6-6-6-6-6-6-6-6-|
G|-6-6-6-6-6-6-6-6-6-6-6-6-6-6-6-6-|
D|-6-6-6-6-6-6-6-6-6-6-6-6-6-6-6-6-|
A|-4-4-4-4-4-4-4-4-4-4-4-4-4-4-4-4-|
E|---------------------------------| x2

Guitars 1 & 2:
e|------------------------------------|
B|-6----------------6\----------------|
G|-6----------------6\----------------|
D|-6----------------6\----------------|
A|-4----------------4\----------------|
E|------------------------------------|


| [x] palm mute
|  \  slide down
|  h  hammer-on
|  x  Mute note
Добавлено: 02.11.2013
Другие материалы по этой песне:
  • Аккорды и текст

Страница создана 02.11.2013
http://primanota.ru/colera/dia-e-noite-noite-e-dia-chords.htm
Привет, Гость.
Предлагаем пройти революционный курс по гитаре.
Подарок от PrimaNota.Ru, забирай!