PrimaNota.ru - самый крупный в мире бесплатный архив песенных текстов, аккордов, табулатур и нот


Coleman Hell - Two Heads - аккорды и текст, видео

Регистрация Запомнить меня
Войти через:  Facebook Google Twitter Vk Yandex Mail.ru

Coleman Hell - Two Heads - аккорды и текст, видео

Печатать
Просмотров: 41
Two Heads
Coleman Hell
Coleman Hell - Two Heads

Note: There isn't actually any guitar in the original version of this song.

Intro (Chorus)
(1 strum)
                               Am     C
There must be something in the water
                                       G
And there must be something about your daughter
    F                                 Am      C
She said our love ain't nothing but a monster
                             G              F
Our love ain't nothing but a monster with 2 Heads

(Start drum beat)
(Banjo Solo)
   Am                    C                      G                     F
e|--------------------------------------------|--------------------------------------------|
B|---0h1--0h1--0h1--1h3----0h1--0h1--0h1--1h3-|---0h1--0h1--0h1--1h3----0h1--0h1--0h1--1h3-|
G|---2----2----2----2------0----0----0----0---|---0----0----0----0------0----0----0----0---|
D|--------------------------------------------|--------------------------------------------|
A|-0----0----0----0------3----3----3----3-----|--------------------------------------------|
E|--------------------------------------------|-3----3----3----3------1----1----1----1-----|

Verse
(Pluck low string, up strum high strings)
(Palm mute)
          Am                C
I turn to you, you're all I see
             G                                 F
Our love's a monster with 2 Heads and one heartbeat
          Am                C
I turn to you, you're all I see
             G                                 F
Our love's a monster with 2 Heads and one heartbeat
                             Am     C
We just got caught up in the moment
                             G          F
Why don't you call me in the morning instead
                      Am      C
Before we turn into a monster
                      G              F
Before we turn into a monster with 2 Heads

Pre-chorus
(1 strum)
                    Am             C
I hope to god I'll love you harder
                   G               F
I hope to god I'll love you longer
                Am           C
If only I could live forever
                G               F
If only I could hold you longer

Chorus
(Plucked on palm muted banjo)
                               Am     C
There must be something in the water
                                       G
And there must be something about your daughter
    F                                 Am      C
She said our love ain't nothing but a monster
                             G
Our love ain't nothing but a monster
       F
With 2 Heads

(Banjo Solo)
   Am                    C                      G                     F
e|--------------------------------------------|--------------------------------------------|
B|---0h1--0h1--0h1--1h3----0h1--0h1--0h1--1h3-|---0h1--0h1--0h1--1h3----0h1--0h1--0h1--1h3-|
G|---2----2----2----2------0----0----0----0---|---0----0----0----0------0----0----0----0---|
D|--------------------------------------------|--------------------------------------------|
A|-0----0----0----0------3----3----3----3-----|--------------------------------------------|
E|--------------------------------------------|-3----3----3----3------1----1----1----1-----|

Verse
(Pluck low string, up strum high strings)
          Am                C
I turn to you, you're all I see
             G                                 F
Our love's a monster with 2 Heads and one heartbeat
          Am                C
I turn to you, you're all I see
             G                                 F
Our love's a monster with 2 Heads and one heartbeat
                             Am     C
We just got caught up in the moment
                             G          F
Why don't you call me in the morning instead
                      Am      C
Before we turn into a monster
                      G              F
Before we turn into a monster with 2 Heads

Pre-chorus
(1 strum)
                    Am             C
I hope to god I'll love you harder
                   G               F
I hope to god I'll love you longer
                Am           C
If only I could live forever
                G               F
If only I could hold you longer
                    Am             C
I hope to god I'll love you harder
                   G               F
I hope to god I'll love you longer
                Am           C
If only I could live forever
                G               F
If only I could hold you longer

Banjo Outro x2
   Am                    C                      G                     F
e|--------------------------------------------|--------------------------------------------|
B|---0h1--0h1--0h1--1h3----0h1--0h1--0h1--1h3-|---0h1--0h1--0h1--1h3----0h1--0h1--0h1--1h3-|
G|---2----2----2----2------0----0----0----0---|---0----0----0----0------0----0----0----0---|
D|--------------------------------------------|--------------------------------------------|
A|-0----0----0----0------3----3----3----3-----|--------------------------------------------|
E|--------------------------------------------|-3----3----3----3------1----1----1----1-----|
(Palm mute at end)
Добавлено: 26.02.2016
Вам также может быть интересно:
Другие материалы по этой песне:
  • Аккорды и текст

Страница создана 26.02.2016
http://primanota.ru/coleman-hell/two-heads-chords.htm
Привет, Гость.
Предлагаем пройти революционный курс по гитаре.
Подарок от PrimaNota.Ru, забирай!