PrimaNota.ru - самый крупный в мире бесплатный архив песенных текстов, аккордов, табулатур и нот


Coldplay - Poor Me - аккорды и текст, таба, видео

Регистрация Запомнить меня
Войти через:  Facebook Google Twitter Vk Yandex Mail.ru

Coldplay - Poor Me - аккорды и текст, таба, видео

Печатать
Просмотров: 255
Poor Me
Coldplay
Band: Coldplay
Song: Poor Me
Album: None (Live Version)
Words & Music: Guy Berrymen, Jon Buckland, Will Champion & Chris Martin
From: Zachary
E-mail: cicak_cobing@yahoo.com

Note: Yeah, I know Coldplay don't really use Standard Tuning. But you
      can't say like that because in Parachutes album they don't use
      Standard Tuning but in A Rush Of Blood To The Head album they
      use Standard Tuning all the way.

Standard Tuning: EADGbe

Note: To tab this song is not easy, because Chris Martin sings with a
      "random vocals"(I think that's the right term, which means he
      sings sharp & shouting type of vocals & change his tone every
      now & then) that's making it confusing.

Chords Used:

   Bb7M   Ab7M   Em9 A Am9 G
e|    X     X     0    0    0    3
b|   10     8     0    2    1    3
G|   10     8     0    2    2    0
D|    8     6     2    2    2    0
A|    X     X     2    0    0    2
E|    X     X     0    X    X    3

Note: I can't hear any acoustic guitar in the song. The electric guitar
      is loud & it's tab all the way. So I put up chords.

Intro: Bb7M   Bb7M   Bb7M   Bb7M  
       Bb7M   Bb7M   Bb7M   Bb7M  
       Bb7M   Ab7M   Bb7M   Ab7M  
       Bb7M   Ab7M   Bb7M   Ab7M  

Verse 1:

Am9    Em9
Poor me flowing out to sea,

Am9                     G A Em9
An opportunity that went by,

Am9         Em9
Poor you now whatcha gonna do,

Am9                      G A Em9
Whatcha gonna do you just cry,

Break: Bb7M   Bb7M   Bb7M   Bb7M  
       Bb7M   Ab7M   Bb7M   Ab7M  

Verse 2:

Am9     Em9
Poor you always come and go,

Am9             Em9
You're trying to discern,

               G A Em9
You don't know why,

Am9        Em9
Poor you oh whatcha gonna do,

Am9                     Em9
Come on love I'll see it through,

             G A Em9
I don't know why,

Note: I can't get this part. Jonny was using tabs here. I believe he
      himself can't get the tune of Chris singing. Haha!

Chorus:

e|-12-14---7--10---12-5--
b|-----------------------
G|-----------------------
D|-----------------------
A|-----------------------
E|-----------------------
    I hear ya come nearer,

e|-12-14---7---------9-----7----------
b|---------------------------7--9-----
G|------------------------------------
D|------------------------------------
A|------------------------------------
E|------------------------------------
    I hear you but I don't understand,

e|-12-14---7--10---12-5---
b|------------------------
G|------------------------
D|------------------------
A|------------------------
E|------------------------
    I hear ya come nearer,

e|-12-14---7---------9-----7----------
b|---------------------------7--9-----
G|------------------------------------
D|------------------------------------
A|------------------------------------
E|------------------------------------
    I hear you but I don't understand,

Verse 3:

Am9    Em9
Poor me float me out to sea,

Am9                        Em9
Oh no just won't you let it be,

        G A Em9
Come on try,

Am9        Em9
Poor you oh whatcha gonna do,

Am9             Em9    G A Em9
Oh whatcha gonna do just cry,

Note: The same as the first one, it's the electric guitar.

Chorus:

e|-12-14---7--10---12-5--
b|-----------------------
G|-----------------------
D|-----------------------
A|-----------------------
E|-----------------------
    I hear ya come nearer,

e|-12-14---7---------9-----7----------
b|---------------------------7--9-----
G|------------------------------------
D|------------------------------------
A|------------------------------------
E|------------------------------------
    I hear you but I don't understand,

e|-12-14---7--10---12-5---
b|------------------------
G|------------------------
D|------------------------
A|------------------------
E|------------------------
    I hear ya come nearer,

e|-12-14---7---------9-----7----------
b|---------------------------7--9-----
G|------------------------------------
D|------------------------------------
A|------------------------------------
E|------------------------------------
    I hear you but I don't understand,

Riff:

Em9    A       Bb7M  
I don't understand,

Em9    A       Bb7M  
I don't understand,

Note: Listen to the song for the timing

Intrumental:

e|-9-11-5-7-9-3-9-11-5-7-5------9-11-5-7-9-3-9-11-5-7-5-----
b|-------------------------5-7--------------------------5-7-
G|----------------------------------------------------------
D|----------------------------------------------------------
A|----------------------------------------------------------
E|----------------------------------------------------------

Note: That's all, enjoy the song & drop me a mail if you got anything
      to say about the tabs.
Добавлено: 25.03.2012
Другие материалы по этой песне:
  • Аккорды и текст

Страница создана 25.03.2012
http://primanota.ru/coldplay/poor-me-chords.htm
Привет, Гость.
Предлагаем пройти революционный курс по гитаре.
Подарок от PrimaNota.Ru, забирай!