PrimaNota.ru - самый крупный в мире бесплатный архив песенных текстов, аккордов, табулатур и нот


Coldfusion - Rage - текст песни, таба, видео

Регистрация Запомнить меня
Войти через:  Facebook Google Twitter Vk Yandex Mail.ru

Coldfusion - Rage - текст песни, таба, видео

Печатать
Просмотров: 147
Well this isn't the Pain of Tragedy song, but this is one of their really good songs
and one of my favorites. This is Rage by Coldfusion, and the Living Lie song; I found
mistakes in there, because I realized that it's two guitars playing it which I tried to
put together into one guitar, so I'll make those adjustments. As for Pain of Tragedy,
that is also two guitars so that is going to take some time for me. Anyway, enjoy this
one, I know for a fact this is correct 100%.

Tuning Drop D: e,B,G,D,A,D

Intro

e-|----------------------------------------------------------------------------------------|
B-|----------------------------------------------------------------------------------------|
G-|------6-6-7-7-9-9-9-------6-6-7-7-9-9-9-------6-6-7-7-9-9-9-----------------------------|
D-|-4-4--6-6-7-7-9-9-9--4-4--6-6-7-7-9-9-9--4-4--6-6-7-7-9-9-9-----------------------------|
A-|-4-4--4-4-5-5-7-7-7--4-4--4-4-5-5-7-7-7--4-4--4-4-5-5-7-7-7-----------------------------|
D-|-4-4-----------------4-4-----------------4-4--------------------------------------------|

e-|----------------------------------------------------------------------------------------|
B-|----------------------------------------------------------------------------------------|
G-|------6-6-7-7-9-9-9-------6-6-7-7-9-9-9-------6-6-7-7-----------------------------------|
D-|-4-4--6-6-7-7-9-9-9--4-4--6-6-7-7-9-9-9--4-4--6-6-7-7-----------------------------------|
A-|-4-4--4-4-5-5-7-7-7--4-4--4-4-5-5-7-7-7--4-4--4-4-5-5-----------------------------------|
D-|-4-4-----------------4-4-----------------4-4--------------------------------------------|

e-|----------------------------------------------------------------------------------------|
B-|----------------------------------------------------------------------------------------|
G-|-------------------------------------9-9-9-7-7------------------------------------------|
D-|-4--2-2-0-0--4--2-2-0-0--4--2-2-0-0--9-9-9-7-7------------------------------------------|
A-|-4--2-2-0-0--4--2-2-0-0--4--2-2-0-0--7-7-7-5-5------------------------------------------|
D-|-4--2-2-0-0--4--2-2-0-0--4--2-2-0-0-----------------------------------------------------|

e-|----------------------------------------------------------------------------------------|
B-|----------------------------------------------------------------------------------------|
G-|-------------------------------------9-9-9-12-12----------------------------------------|
D-|-4--2-2-0-0--4--2-2-0-0--4--2-2-0-0--9-9-9-12-12----------------------------------------|
A-|-4--2-2-0-0--4--2-2-0-0--4--2-2-0-0--7-7-7-10-10----------------------------------------|
D-|-4--2-2-0-0--4--2-2-0-0--4--2-2-0-0-----------------------------------------------------|

e-|----------------------------------------------------------------------------------------|
B-|----------------------------------------------------------------------------------------|
G-|-------------------------------------9-9-9-7-7------------------------------------------|
D-|-4--2-2-0-0--4--2-2-0-0--4--2-2-0-0--9-9-9-7-7------------------------------------------|
A-|-4--2-2-0-0--4--2-2-0-0--4--2-2-0-0--7-7-7-5-5------------------------------------------|
D-|-4--2-2-0-0--4--2-2-0-0--4--2-2-0-0-----------------------------------------------------|

e-|----------------------------------------------------------------------------------------|
B-|----------------------------------------------------------------------------------------|
G-|-------------------------------------9-9-9-12-12----------------------------------------|
D-|-4--2-2-0-0--4--2-2-0-0--4--2-2-0-0--9-9-9-12-12----------------------------------------|
A-|-4--2-2-0-0--4--2-2-0-0--4--2-2-0-0--7-7-7-10-10----------------------------------------|
D-|-4--2-2-0-0--4--2-2-0-0--4--2-2-0-0-----------------------------------------------------|

Verse 1

e-|----------------------------------------------------------------------------------------|
B-|----------------------------------------------------------------------------------------|
G-|------6-6-7-7-9-9-9-------6-6-7-7-9-9-9-------6-6-7-7-9-9-9-------6-6-7-7---------------|
D-|-4-4--6-6-7-7-9-9-9--4-4--6-6-7-7-9-9-9--4-4--6-6-7-7-9-9-9--4-4--6-6-7-7--4-4-4--------|
A-|-4-4--4-4-5-5-7-7-7--4-4--4-4-5-5-7-7-7--4-4--4-4-5-5-7-7-7--4-4--4-4-5-5--4-4-4--------|
D-|-4-4-----------------4-4-----------------4-4-----------------4-4-----------4-4-4--------|
                                                                              * PM *
e-|----------------------------------------------------------------------------------------|
B-|----------------------------------------------------------------------------------------|
G-|------6-6-7-7-9-9-9-------6-6-7-7-9-9-9-------6-6-7-7-9-9-9-------6-6-------------------|
D-|-4-4--6-6-7-7-9-9-9--4-4--6-6-7-7-9-9-9--4-4--6-6-7-7-9-9-9--4-4--6-6--4--4--4----------|
A-|-4-4--4-4-5-5-7-7-7--4-4--4-4-5-5-7-7-7--4-4--4-4-5-5-7-7-7--4-4--4-4--4--4--4----------|
D-|-4-4-----------------4-4-----------------4-4-----------------4-4-------4--4--4----------|
                                                                          *  PM *

Chorus

e-|----------------------------------------------------------------------------------------|
B-|----------------------------------------------------------------------------------------|
G-|-------------------------------------9-9-9-7-7------------------------------------------|
D-|-4--2-2-0-0--4--2-2-0-0--4--2-2-0-0--9-9-9-7-7------------------------------------------|
A-|-4--2-2-0-0--4--2-2-0-0--4--2-2-0-0--7-7-7-5-5------------------------------------------|
D-|-4--2-2-0-0--4--2-2-0-0--4--2-2-0-0-----------------------------------------------------|

e-|----------------------------------------------------------------------------------------|
B-|----------------------------------------------------------------------------------------|
G-|-------------------------------------9-9-9-12-12----------------------------------------|
D-|-4--2-2-0-0--4--2-2-0-0--4--2-2-0-0--9-9-9-12-12----------------------------------------|
A-|-4--2-2-0-0--4--2-2-0-0--4--2-2-0-0--7-7-7-10-10----------------------------------------|
D-|-4--2-2-0-0--4--2-2-0-0--4--2-2-0-0-----------------------------------------------------|

Verse 2

e-|----------------------------------------------------------------------------------------|
B-|----------------------------------------------------------------------------------------|
G-|------6-6-7-7-9-9-9-------6-6-7-7-9-9-9-------6-6-7-7-9-9-9-----------------------------|
D-|-4-4--6-6-7-7-9-9-9--4-4--6-6-7-7-9-9-9--4-4--6-6-7-7-9-9-9--4-4------------------------|
A-|-4-4--4-4-5-5-7-7-7--4-4--4-4-5-5-7-7-7--4-4--4-4-5-5-7-7-7--4-4------------------------|
D-|-4-4-----------------4-4-----------------4-4-----------------4-4------------------------|

e-|----------------------------------------------------------------------------------------|
B-|----------------------------------------------------------------------------------------|
G-|------6-6-7-7-9-9-9-------6-6-7-7-9-9-9-------6-6-7-7-9-9-9-------x-x-x-x---------------|
D-|-4-4--6-6-7-7-9-9-9--4-4--6-6-7-7-9-9-9--4-4--6-6-7-7-9-9-9--4-4--x-x-x-x---------------|
A-|-4-4--4-4-5-5-7-7-7--4-4--4-4-5-5-7-7-7--4-4--4-4-5-5-7-7-7--4-4--x-x-x-x---------------|
D-|-4-4-----------------4-4-----------------4-4-----------------4-4--x-x-x-x---------------|

e-|----------------------------------------------------------------------------------------|
B-|----------------------------------------------------------------------------------------|
G-|------6-6-7-7-9-9-9-------6-6-7-7-9-9-9-------6-6-7-7-9-9-9-------6-6-------------------|
D-|-4-4--6-6-7-7-9-9-9--4-4--6-6-7-7-9-9-9--4-4--6-6-7-7-9-9-9--4-4--6-6--4--4--4----------|
A-|-4-4--4-4-5-5-7-7-7--4-4--4-4-5-5-7-7-7--4-4--4-4-5-5-7-7-7--4-4--4-4--4--4--4----------|
D-|-4-4-----------------4-4-----------------4-4-----------------4-4-------4--4--4----------|
                                                                          *  PM *
Chorus

e-|----------------------------------------------------------------------------------------|
B-|----------------------------------------------------------------------------------------|
G-|-------------------------------------9-9-9-7-7------------------------------------------|
D-|-4--2-2-0-0--4--2-2-0-0--4--2-2-0-0--9-9-9-7-7------------------------------------------|
A-|-4--2-2-0-0--4--2-2-0-0--4--2-2-0-0--7-7-7-5-5------------------------------------------|
D-|-4--2-2-0-0--4--2-2-0-0--4--2-2-0-0-----------------------------------------------------|

e-|----------------------------------------------------------------------------------------|
B-|----------------------------------------------------------------------------------------|
G-|-------------------------------------9-9-9-12-12----------------------------------------|
D-|-4--2-2-0-0--4--2-2-0-0--4--2-2-0-0--9-9-9-12-12----------------------------------------|
A-|-4--2-2-0-0--4--2-2-0-0--4--2-2-0-0--7-7-7-10-10----------------------------------------|
D-|-4--2-2-0-0--4--2-2-0-0--4--2-2-0-0-----------------------------------------------------|

e-|----------------------------------------------------------------------------------------|
B-|----------------------------------------------------------------------------------------|
G-|-------------------------------------9-9-9-7-7------------------------------------------|
D-|-4--2-2-0-0--4--2-2-0-0--4--2-2-0-0--9-9-9-7-7------------------------------------------|
A-|-4--2-2-0-0--4--2-2-0-0--4--2-2-0-0--7-7-7-5-5------------------------------------------|
D-|-4--2-2-0-0--4--2-2-0-0--4--2-2-0-0-----------------------------------------------------|

e-|----------------------------------------------------------------------------------------|
B-|----------------------------------------------------------------------------------------|
G-|-------------------------------------9-9-9-12-12----------------------------------------|
D-|-4--2-2-0-0--4--2-2-0-0--4--2-2-0-0--9-9-9-12-12----------------------------------------|
A-|-4--2-2-0-0--4--2-2-0-0--4--2-2-0-0--7-7-7-10-10----------------------------------------|
D-|-4--2-2-0-0--4--2-2-0-0--4--2-2-0-0-----------------------------------------------------|

Bridge

e-|----------------------------------------------------------------------------------------|
B-|----------------------------------------------------------------------------------------|
G-|----------------------------------------------------------------------------------------|
D-|-4~~--0~~--2~~--0~--2~--400400400400454-400400400400774--400400400400454-4004004004007--|
A-|-4~~--0~~--2~~--0~--2~--400400400400454-400400400400774--400400400400454-4004004004007--|
D-|-4~~--0~~--2~~--0~--2~--400400400400454-400400400400774--400400400400454-4004004004007--|

e-|----------------------------------------------------------------------------------------|
B-|----------------------------------------------------------------------------------------|
G-|----------------------------------------------------------------------------------------|
D-|-400400400400454-400400400400774--400400400400454-400400400400--4--4-4--4---------------|
A-|-400400400400454-400400400400774--400400400400454-400400400400--4--4-4--4---------------|
D-|-400400400400454-400400400400774--400400400400454-400400400400--4--4-4--4---------------|
                                                                   *   PM  *

e-|----------------------------------------------------------------------------------------|
B-|----------------------------------------------------------------------------------------|
G-|----------------------------------------------------------------------------------------|
D-|-400400400400454-400400400400774--400400400400454---------------------------------------|
A-|-400400400400454-400400400400774--400400400400454---------------------------------------|
D-|-400400400400454-400400400400774--400400400400454---------------------------------------|

Ending

e-|----------------------------------------------------------------------------------------|
B-|----------------------------------------------------------------------------------------|
G-|-------------------------------------9-9-9-7-7------------------------------------------|
D-|-4--2-2-0-0--4--2-2-0-0--4--2-2-0-0--9-9-9-7-7------------------------------------------|
A-|-4--2-2-0-0--4--2-2-0-0--4--2-2-0-0--7-7-7-5-5------------------------------------------|
D-|-4--2-2-0-0--4--2-2-0-0--4--2-2-0-0-----------------------------------------------------|

e-|----------------------------------------------------------------------------------------|
B-|----------------------------------------------------------------------------------------|
G-|-------------------------------------9-9-9-12-12----------------------------------------|
D-|-4--2-2-0-0--4--2-2-0-0--4--2-2-0-0--9-9-9-12-12----------------------------------------|
A-|-4--2-2-0-0--4--2-2-0-0--4--2-2-0-0--7-7-7-10-10----------------------------------------|
D-|-4--2-2-0-0--4--2-2-0-0--4--2-2-0-0-----------------------------------------------------|

e-|----------------------------------------------------------------------------------------|
B-|----------------------------------------------------------------------------------------|
G-|-------------------------------------9-9-9-7-7------------------------------------------|
D-|-4--2-2-0-0--4--2-2-0-0--4--2-2-0-0--9-9-9-7-7------------------------------------------|
A-|-4--2-2-0-0--4--2-2-0-0--4--2-2-0-0--7-7-7-5-5------------------------------------------|
D-|-4--2-2-0-0--4--2-2-0-0--4--2-2-0-0-----------------------------------------------------|

e-|-------------------------------------------------|--------------------------------------|
B-|-------------------------------------------------|--------------------------------------|
G-|-------------------------------------9-9-9-12-12-|--------------------------------------|
D-|-4--2-2-0-0--4--2-2-0-0--4--2-2-0-0--9-9-9-12-12-|--4-4---------------------------------|
A-|-4--2-2-0-0--4--2-2-0-0--4--2-2-0-0--7-7-7-10-10-|--4-4---------------------------------|
D-|-4--2-2-0-0--4--2-2-0-0--4--2-2-0-0--------------|--4-4---------------------------------|
Добавлено: 04.07.2012
Вам также может быть интересно:
Другие материалы по этой песне:
  • Аккорды и текст

Страница создана 09.03.2012
http://primanota.ru/coldfusion/rage-chords.htm
Привет, Гость.
Предлагаем пройти революционный курс по гитаре.
Подарок от PrimaNota.Ru, забирай!