PrimaNota.ru - самый крупный в мире бесплатный архив песенных текстов, аккордов, табулатур и нот


Cold - Remedy - аккорды и текст, таба, бас-таба, видео

Регистрация Запомнить меня
Войти через:  Facebook Google Twitter Vk Yandex Mail.ru

Cold - Remedy - аккорды и текст, таба, бас-таба, видео

Печатать
Просмотров: 426
Remedy
Cold
Artist: Cold
Song: Remedy
Album: Year of the Spider
Tabbed by: HeNrY OniXPiroN (onixpiron@hotmail.com)






tuning Eb Ab Db Gb Bb Eb


This are the chord progresions.

VERSE
Eb| ---------------------------
Bb| ---------------------------
Gb| --11-----------11--9-------
Db| --11--11--12---11--9-------
Ab| --9---11--12---9---7-------
Eb| ------9---10---------------




chorus

Eb| --------------------------------------------
Bb| --------------------------------------------
Gb| ---11---10----------------11--10---12---11--
Db| ---11---10---12---11------11--10---12---11--
Ab| ---9----7----12---11------9---7----10---9---
Eb| -------------10---9--------------------



when he sing " I don't want , I don't need.....
After the second chorus is like the verse

_________________________________________________________________
     
Добавлено: 02.09.2013
Другие материалы по этой песне:

Страница создана 19.03.2012
http://primanota.ru/cold/remedy-chords.htm
Привет, Гость.
Предлагаем пройти революционный курс по гитаре.
Подарок от PrimaNota.Ru, забирай!