PrimaNota.ru - самый крупный в мире бесплатный архив песенных текстов, аккордов, табулатур и нот


Cold - My Religion - таба, видео

Регистрация Запомнить меня
Войти через:  Facebook Google Twitter Vk Yandex Mail.ru

Cold - My Religion - таба, видео

Печатать
Просмотров: 200
-----------------------------------------------------------------------------
                             My Religion - Cold
-----------------------------------------------------------------------------
Tabbed by: John Orgler / coldfan27
Email:coldfan27@yahoo.com

Ok this song is from the long awaited album from Cold titled "EPIC"
Honestly I did this all by ear because at this time the album is not out yet and the
way to hear there songs are on http://www.youtube.com and Colds Myspace. The tunning 
i
is C tuning (usually Cold uses tunings from B to A# but this one worked. Also i have 
the lyrics. Thank you and if you have any questions regarding this tab just email me.

Peace.....

My Religion
--Lyrics--
Took you away from your world guess you thought it was on my deal
I can't believe what you said stand in line when you come to me
fuck you i don't give a damn what you sold me it was gone bye
why can't you see it was trust that was killed in this song tonight

I don't want to be old
I can't find somebody new
I don't need you to go on
This is my religion

Take me for all that you can play the game that you started here
Don't think i don't know the ways and the reasons you stand with me
fuck you i don't give a damn what you sold me it was gone bye
why can't you see it was trust that was killed in this song tonight

I don't want to be old
I can't find somebody new
I don't need you to go on
This is my religion (x2)

Took you away from you world

I don't want to be old
I can't find somebody new
I don't need you to go on
This is my religion

I don't want to be old
I can't find somebody new
I don't need you to be strong
This is my religion

Took you away from your world
I took away what you said


Tuning: C-G-C-F-A-D or Standard D tuning Dropped 1/2 step

Guitar 1 intro(x2)/verse(x4) also use for verse later in song
D|----------------------------------------------------------------------------|
A|----------------------------------------------------------------------------|
F|-5w~--7w~--8w~--10w~--13w~--------------------------------------------------|
C|-3w~--5w~--6w~---8w~--11w~--------------------------------------------------|
G|----------------------------------------------------------------------------|
C|----------------------------------------------------------------------------|

Guitar 2 intro(x2)/verse(x4)
D|--------------------------------------------------------------------------|
A|--------------------------------------------------------------------------|
F|--------------------------------------------------------------------------|
C|--------------------------------------------------------------------------|
G|-3~---5~---6~---8~---11-11-11-11-11-11-11-11-11-11-11-11------------------|
C|-3~---5~---6~---8~---11-11-11-11-11-11-11-11-11-11-11-11------------------|

Chorus
Guitar 1 (x1)
D|--------------------------------------------------------------------------|
A|--------------------------------------------------------------------------|
F|-3-3-3-3-3-3--6-6-6-6-6-6--8-8-8-8-8-8--6-6-6-6-6-6-----------------------|
C|-3-3-3-3-3-3--6-6-6-6-6-6--6-6-6-6-6-6--4-4-4-4-4-4-----------------------|
G|-1-1-1-1-1-1--4-4-4-4-4-4--6-6-6-6-6-6--4-4-4-4-4-4-----------------------|
C|---------------------------6-6-6-6-6-6--4-4-4-4-4-4-----------------------|

Guitar 2 (x2)
D|--------------------------------------------------------------------------|
A|--------------------------------------------------------------------------|
F|--------------------------------------------------------------------------|
C|-8-8-8-8-8-8--11-11-11-11-11-11--6-6-6-6-6-6--4-4-4-4-4-4-----------------|
G|-8-8-8-8-8-8--11-11-11-11-11-11--6-6-6-6-6-6--4-4-4-4-4-4-----------------|
C|-8-8-8-8-8-8--11-11-11-11-11-11--6-6-6-6-6-6--4-4-4-4-4-4-----------------|

pre Bridge interlude
Guitar 1
D|--------------------------------------------------------------------------|
A|--------------------------------------------------------------------------|
F|---14---14-15-17-15-14---------(Repeat this x8 during the second----------|
C|-------------------------------half of the second chorus)-----------------|
G|--------------------------------------------------------------------------|
C|--------------------------------------------------------------------------|

Guitar 2
D|--------------------------------------------------------------------------|
A|--------------------------------------------------------------------------|
F|--------------------------------------------------------------------------|
C|--------------------------------------------------------------------------|
G|-3~---5~---6~---8~---11-11-11-11-11-11-11-11-11-11-11-11------------------|
C|-3~---5~---6~---8~---11-11-11-11-11-11-11-11-11-11-11-11------------------|

Solo
e|--16b--15b------------16b-------------------------------------------------|
B|------------16b--14b------------------------------------------------------|
G|----------------------------14-15-17-15-14--14-15-17-15-14--14-15-17-15-14|
D|--------------------------------------------------------------------------|
A|--------------------------------------------------------------------------|
E|--------------------------------------------------------------------------|

e|--------------------------------------------------------------------------|
B|--------------------------------------------------------------------------|
G|-14-15-17-15-14--14-15-17-15-14--14-15-17-15-14--14-15-17-15-14--14-15-17-|
D|--------------------------------------------------------------------------|
A|--------------------------------------------------------------------------|
E|--------------------------------------------------------------------------|

e|--------------------------------------------------------------------------|
B|-------14\0---------------------------------------------------------------|
G|-15-14-14\0---------------------------------------------------------------|
D|----------------3333--5555--6666--5--8--6--11~~---------------------------|
A|----------------3333--5555--6666--5--8--6--11~~---------------------------|
E|----------------3333--5555--6666--5--8--6--11~~---------------------------|
            (this is the last set of notes in the song)
Song Order
-intro
-Verse
-Chorus
-Verse
-Chorus/Pre-bridge
-Bridge
-Solo/Chorus
Outro


***************************************************************************
=======   =========  ==        ======    =======     ==      ==   //==
==        ==     ==  ==        ==     =  ==       ==    ==   ==  // ==
==        ==     ==  ==        ==     =  =====    == == ==   == //  ==
=======   =========  ========  ======    ==       ==    ==   ==//   ==
***************************************************************************

************************************

| /   slide up
| \   slide down
| h   hammer-on
| p   pull-off
| ~   vibrato
| +   harmonic
| x   Mute note
| b   Bend
| pb  Pre-bend
| br  Bend release
| pbr Pre-bend release
| brb Bend release bend
|  w  Wha pitch bend
************************************
Добавлено: 07.05.2012
Другие материалы по этой песне:
  • Аккорды и текст

Страница создана 02.04.2012
http://primanota.ru/cold/my-religion-chords.htm
Привет, Гость.
Предлагаем пройти революционный курс по гитаре.
Подарок от PrimaNota.Ru, забирай!