PrimaNota.ru - самый крупный в мире бесплатный архив песенных текстов, аккордов, табулатур и нот


Cold - Emily - текст песни, таба, видео

Регистрация Запомнить меня
Войти через:  Facebook Google Twitter Vk Yandex Mail.ru

Cold - Emily - текст песни, таба, видео

Печатать
Просмотров: 1160
Уроки эстрадного вокала в Санкт-Петербурге
Artist: Cold
Title: Emily
Album: Superfiction

Tuning: (low to high) C F Bb Eb G C

Tabbed by: FireReaverX


Verse
C |-----------------------------------------------0-----------------|
G |---------------------------------------------------0-------------|
Eb|---------6---------------4-------------2-------------2-----------|
Bb|-----6---------------4---------------2-----2---------------------| 5x
F |-4-----------4-\-2-----------2-\-0-----------0-------------------|
C |-----------------------------------------------------------------|

C |-----------------------------------------------------------------|
G |-----------------------------------------------------------------|
Eb|---------6---------------4-------------2-----------------2-2-2-2-|
Bb|-----6---------------4---------------2-----2-----2-2-2-2-2-2-2-2-|
F |-4-----------4-\-2-----------2-\-0-----------0---0-0-0-0-0-0-0-0-|
C |-----------------------------------------------------------------|
                                                    . . . . . . . .


Chorus
C |-----------------------------------------------------------------|
G |-----------------------------------------------------------------|
Bb|-2---2---2---2---4---4---4---4---6---6---6---6---9---9---9---9---|
Bb|-2---2---2---2---4---4---4---4---6---6---6---6---9---9---9---9---|
F |-0---0---0---0---2---2---2---2---4---4---4---4---7---7---7---7---|
C |-----------------------------------------------------------------|
                                                                      2x
C |-----------------------------------------------------------------|
G |-----------------------------------------------------------------|
Bb|-2---2---2---2---4---4---4---4---6---6---6---6---6---6---6---6---|
Bb|-2---2---2---2---4---4---4---4---6---6---6---6---6---6---6---6---|
F |-0---0---0---0---2---2---2---2---4---4---4---4---4---4---4---4---|
C |-----------------------------------------------------------------|


Verse
Chorus


Bridge
C |---------0---------------0---------------0---------------0-------|
G |-------------0---------------0---------------0---------------0---|
Eb|-----------------------------------------------------------------|
Bb|-----6---------------6---------------6---------------6-----------|
F |-4---------------4---------------6---------------6---------------|
C |-----------------------------------------------------------------|
                                                                      2x
C |---------0---------------0---------------0---------------0-------|
G |-------------0---------------0---------------0---------------0---|
Eb|-----------------------------------------------------------------|
Bb|-----6---------------6---------------6---------------6-----------|
F |-7---------------7---------------0---------------0---------------|
C |-----------------------------------------------------------------|


Chorus


| /  slide up
| \  slide down
| b  bend
| h  hammer-on
| p  pull-off
| v  vibrato
| x  mute string
| .  palm mute
===============================================================================
Добавлено: 25.05.2012
Другие материалы по этой песне:
  • Аккорды и текст

Страница создана 25.05.2012
http://primanota.ru/cold/emily-chords.htm
Привет, Гость.
Предлагаем пройти революционный курс по гитаре.
Подарок от PrimaNota.Ru, забирай!