PrimaNota.ru - самый крупный в мире бесплатный архив песенных текстов, аккордов, табулатур и нот


Cold - Check Please - текст песни, таба, видео

Регистрация Запомнить меня
Войти через:  Facebook Google Twitter Vk Yandex Mail.ru

Cold - Check Please - текст песни, таба, видео

Печатать
Просмотров: 222
Tune 2 steps down.


Intro/Pre-verse
--------------------------------------------------------------------------|
--------------------------------------------------------------------------|
---------------------------------11-12-11-14-11-12-11-12--12-12-14-12-11--|
----------------------------------x--x--x--x--x--x--x--x---x--x--x--x--x--|
----9---10---10/12---10---9h10p9--9-10--9-12--9-10--9-10--10-10-12-10--9--|
--0---0----0-------0----0-------------------------------------------------|

Verse
-------------------------------------------------------------------------|
-------------------------------------------------------------------------|
---------------------------------11-12-11-14--14-14--11-12-11-14--14-14--|
----------------------------------x--x--x--x---x--x---x--x--x--x---x--x--|
----9---10---10/12---10---9h10p9--9-10--9-12--12-12---9-10--9-12--12-12--|
--0---0----0-------0----0------------------------------------------------|

Chorus
[               3x               ] [               1x                ]
----------------------------------|-----------------------------------|
------3-----3------3-----------3--|--------3-----3---------3-----3----|
----2-----2------2---2-------2----|------2---2-----2-----2---2-----2--|
--0------------0-------0---0------|----0-------0-------0-------0------|
--------2----0-----------0--------|--3---------------2----------------|
----------------------------------|-----------------------------------|

Bridge
--------------------------------------------------------------------|
--------3---------------3---------------3---------------3-----------|
----2-----2---2-----2-----2---2-----------0---0---------------------|
--0---0-----0---0-2---2-----2---2---2-------2---2---2------2---2----|
----------------------------------3---3-----------2---2------2---2--|
--------------------------------------------------------------------|
Outro

2x
----------------------------------------0-----0---------0-----0------|
--------3-----3---------3-----3--------------------------------------|
------2---2-----2-----2---2-----2-----2---2-----2---2-----2-----2----|
----0-------0-------0-------0-------0-------0-----0---0-----0--------|
--3---------------2---------------0----------------------------------|
---------------------------------------------------------------------|

Outro
                                                                                   1x
|--------------------------------------0--|
|--------3-----3---------3-----3------3---|
|------2---2-----2-----2---2-----2---2----|
|----0-------0-------0-------0------0-----|
|--3---------------2---------------3------|
|-----------------------------------------|
Добавлено: 05.04.2012
Другие материалы по этой песне:
  • Аккорды и текст

Страница создана 05.04.2012
http://primanota.ru/cold/check-please-chords.htm
Привет, Гость.
Предлагаем пройти революционный курс по гитаре.
Подарок от PrimaNota.Ru, забирай!