PrimaNota.ru - самый крупный в мире бесплатный архив песенных текстов, аккордов, табулатур и нот


Cold - Back Home - текст песни, таба, видео

Регистрация Запомнить меня
Войти через:  Facebook Google Twitter Vk Yandex Mail.ru

Cold - Back Home - текст песни, таба, видео

Печатать
Просмотров: 363
-------------------------------------------------------------------------------
                             Back Home - Cold
-------------------------------------------------------------------------------
Tabbed by: Idan

Tuning: Drop C (CGCFAD)

Intro

D|--5--repeat alot---8-X8--10-X8--13-X8--------------------------------------------|
A|-----------------------------------------------------------3---------3---------3-|
F|-------------------------------------------------7-------------------------------|
C|------------------------------------------7----7----3----3----2----2----0----0---|
G|------------------------------------------7---------3---------2---------0--------|
C|------------------------------------------7--7------3--3------2--2------0--0-----|

Verse
Guitar starts playing at the 2nd time:
D|--5-X14--8-5-8-5---5-X14--7-5-7-5---5-X14--8-5-8-5---5-X16-----------------|
A|---------------------------------------------------------------------------|
F|---------------------------------------------------------------------------|
C|---------------------------------------------------------------------------|
G|---------------------------------------------------------------------------|
C|---------------------------------------------------------------------------|

Chorus

D|----------------|
A|----------------|
F|-----5----------|
C|--7--5--0--3-2--|
G|--7--3--0--3-2--|
C|--7-----0--3-2--| X2

Repeat Intro
Repeat Verse
Repeat Chorus

Bridge
"All the way.."
D|--------------|
A|--------------|
F|--------------|
C|--3--0--7--5--|
G|--3--0--7--5--|
C|--3--0--7--5--| X2

D|---------------------------------------------|
A|---------------------------------------------|
F|---------------------------------------------|
C|--3------0------7--5-----3------0------2--5--|
G|--3------0------7--5-----3------0------2--5--|
C|--3--X5--0--X5--7--5-----3--X5--0--X5--2--5--|


Chorus
Play clean until P.M
D|----------------|
A|----------------|
F|-----5----------|
C|--7--5--0--3-2--|
G|--7--3--0--3-2--|
C|--7-----0--3-2--|

2nd time (Dist. comes in with the palm muting)
D|----------------------------|
A|----------------------------|
F|-----5----------------------|
C|--7--5--0------3------2-----|
G|--7--3--0------3------2-----|
C|--7-----0--X8--3--X4--2--X4-|
          P.M..............(gradually release)

Repeat Chorus X4 (Notice rhythm changes)
Another guitar is playing the verse part at the last 2 times 

End with:

D|-------|
A|-------|
F|-------|
C|--7----|
G|--7----|
C|--7----|

===============================================================================
Добавлено: 25.07.2012
Другие материалы по этой песне:

Страница создана 27.02.2012
http://primanota.ru/cold/back-home-chords.htm
Привет, Гость.
Предлагаем пройти революционный курс по гитаре.
Подарок от PrimaNota.Ru, забирай!