PrimaNota.ru - самый крупный в мире бесплатный архив песенных текстов, аккордов, табулатур и нот


Cold Weather Company - Tumbling - таба, видео

Регистрация Запомнить меня
Войти через:  Facebook Google Twitter Vk Yandex Mail.ru

Cold Weather Company - Tumbling - таба, видео

Печатать
Просмотров: 127
Уроки эстрадного вокала в Санкт-Петербурге
(/) Slide Up  (\) Slide Down  (h) Hammer On  (p) Pull Off  (b) Bend (r) Release (v) Vibrato

Tumbling by Cold Weather Company

Guitar Tab

Intro and verses (fingerpicked):

E|-------------------------------------------------------------------------------------------------------|
B|-------------------------------------------------------------------------------------------------------|
G|-----2--2--2--3--2--2--2--3--2--2--2--3--5--3--2--0--0--0--0--2--0--0--0--2--0--0--0--2--3--2--0--3----|
D|------3--3--3--3--3--3--3--3--3--3--3--3--3--3--3--3--2--2--2--2--2--2--2--2--2--2--2--2--2--2--2--2---|
A|----5--5--5--5--5--5--5--5--5--5--5--5--5--5--5--5--5--3--3--3--3--3--3--3--3--3--3--3--3--3--3--3--3--|
E|-------------------------------------------------------------------------------------------------------|


E|----------------------------------------------|
B|----------------------------------------------|
G|----2--2--2--2--2--2--2--2--2--2--2--2-----2--|
D|-----3--3--3--3--2--2--2--2--3--3--3--3----2--|
A|------1--1--1--1--0--0--0--0--1--1--1--1---0--|
E|----------------------------------------------|


On the 4th time (after the 3rd verse) it has this extra transitional part at the end:

E|--------------------------------------------|
B|--------------------------------------------|
G|----2--2--2--2--2--2--2--2------------------|
D|-----3--3--3--3--2--2--2--2--------2--------|
A|--1---1--1--1--1--0--0--0--0--4--5----------|
E|--------------------------------------------|

Prechoruses

"Oh this world you sees not meant for me"

E|-----------------------------------------------------------------|
B|-----------------------------------------------------------2-----|
G|-----------------------------------------------------------2-----|
D|---------3--3--3------------2--2--2-------------3--3--3----2-----|
A|-----5----5--5--5\4-----4----4--4--4/5------5----5--5--5---0-----|
E|---5---5---5--5-------5---5---5--5--------5---5---5--5-----------|

"Far across this land I've come for thee"

E|---------------------------------------3------------|
B|---------------------------------------0------2-----|
G|---------------------------------------0------2-----|
D|---------3--3--3------------2--2--2----0------2-----|
A|-----5----5--5--5\4-----4----4--4--4---2------0-----|
E|---5---5---5--5-------5---5---5--5-----3------------|

"Safely silent I wish to not stay here"

E|-----------------------------------------------------------------|
B|-----------------------------------------------------------2-----|
G|-----------------------------------------------------------2-----|
D|---------3--3--3------------2--2--2-------------3--3--3----2-----|
A|-----5----5--5--5\4-----4----4--4--4/5------5----5--5--5---0-----|
E|---5---5---5--5-------5---5---5--5--------5---5---5--5-----------|

"Come and join me or continue to live in fear"

E|---------------------------------------3---------------------------|
B|---------------------------------------0------2-----2-------2------|
G|---------------------------------------0------2-----3(p)2---3(p)2--|
D|---------3--3--3------------2--2--2----0------2-----2-------2------|
A|-----5----5--5--5\4-----4----4--4--4---2------0-----0-------0------|
E|---5---5---5--5-------5---5---5--5-----3---------------------------|

Choruses (strummed)x 2

E|---------------------------------------------------------------------------------------------x--x--x--x--x--|
B|---------------------------------------------------------------------------------------------6--6--6--6--6--|
G|---------------------------------4--4--4--4--4--6--6--6--6--6--4--4--4--4--4--6--6--6--6--6--7--7--7--7--7--|
D|---3--3--3--3--3--2--2--2--2--2--5--5--5--5--5--7--7--7--7--7--5--5--5--5--5--7--7--7--7--7--7--7--7--7--7--|
A|---5--5--5--5--5--4--4--4--4--4--5--5--5--5--5--7--7--7--7--7--5--5--5--5--5--7--7--7--7--7--5--5--5--5--5--|
E|---5--5--5--5--5--5--5--5--5--5--3--3--3--3--3--5--5--5--5--5--3--3--3--3--3--5--5--5--5--5--x--x--x--x--x--|

Post Chorus Part

E|---------------------------------------------------------|
B|---2-----2-------2---------------------------------------|
G|---2-----3(p)2---3(p)2-----------------------------------|
D|---2-----2-------2---------------------------------------|
A|---0-----0-------0---------------------------------------|
E|---------------------------------------------------------|

Then it goes back into the verse, prechorus, and final chorus 4x

Outro tab:

Repeat 3x

E|---1-----------------------------------------------------|
B|----3----------------------2-----------------------------|
G|-----2-----2---2---1---1---2-----------------------------|
D|---0---------3-------2-----2-----------------------------|
A|---------------------------0-----------------------------|
E|-----------1-------0-------------------------------------|


Then
                      (strummed)
E|---1-----------------------------------------------1------------|
B|----3----------------------------------------2-----3------------|
G|-----2-----2---2---1-----1--/--2--\--1-------2-----2------------|
D|---0---------3-----2-----2--/--3--\--2-------2-----0------------|
A|-------------------2-----2--/--3--\--2-------0-----0------------|
E|-----------1-------0-----0--/--0--\--0--------------------------|
Добавлено: 20.12.2015
Другие материалы по этой песне:
  • Аккорды и текст

Страница создана 20.12.2015
http://primanota.ru/cold-weather-company/tumbling-chords.htm
Привет, Гость.
Предлагаем пройти революционный курс по гитаре.
Подарок от PrimaNota.Ru, забирай!