PrimaNota.ru - самый крупный в мире бесплатный архив песенных текстов, аккордов, табулатур и нот


Cold Specks - Blank Maps - таба, видео

Регистрация Запомнить меня
Войти через:  Facebook Google Twitter Vk Yandex Mail.ru

Cold Specks - Blank Maps - таба, видео

Печатать
Просмотров: 134
Уроки эстрадного вокала в Санкт-Петербурге
-------------------------------------------------------------------------------
                             SONG NAME - Band Name
-------------------------------------------------------------------------------
Tabbed by:Metallica 
E-mail:theunnamedhero@yahoo.com
http://coldspecks.com/

Tuning:Open D: DADF#AD
Capo on the 5th fret

intro/verse

D |-----------------------------------------------------------------|
A |-------2-------2-------3-------3-------2-------2-------0-------0-|
F#|---1-------1-------1-------1-------1-------1-------1-------1-----|
D |-2---2---2---2---2---2---2---2---2---2---2---2---0---0---0---0---|
A |-----------------------------------------------------------------|
D |-----------------------------------------------------------------|


outro/chorus


D |-------------------------------------------------------2-------0-|
A |-------5-------5-------7-------0-------2-------2-----------------|
F#|---5-------5-------5-------5-------1-------1-------1-------1-----|
D |-5---5---5---5---5---5---0---0---2---2---2---2---0---0---0---0---|
A |-----------------------------------------------------------------|
D |-----------------------------------------------------------------|


D |-----------------------------------------------------------------|
A |-------5-------5-------5-------5-------2-------2-------0-------0-|
F#|---5-------5-------5-------5-------1-------1-------1-------1-----|
D |-5---5---5---5---5---5---5---5---2---2---2---2---0---0---0---0---|
A |-----------------------------------------------------------------|
D |-----------------------------------------------------------------|



intro x2
verse:
Don't you wait on me, I'll shoot you down
Keep your eyes closed, your ear to the ground
Pick up in the middle of the night
Kill the silence, I can't bear to speak
Head for the heart, does it break
Words may fall, the body remains
And every map is blank


chorus:
When my words head for the cracks
Will you have my back?
We were good children
Darling, let it out

When my words head for the cracks
Will you have my back?
We were good children
Darling, let it out

verse:
I hold my breath, don't like to move
When the night comes, who will you be?
Even the dead cannot be astoundingly alive
I am I am, I am I am a goddamn believer
I am I am, I am I am a goddamn believer

chorus:
When my words head for the cracks
Will you have my back?
We were good children
Darling, let it out

When my words head for the cracks
Will you have my back?
We were little children
Darling, let it out

outro:
Well, I am I am, I am I am a goddamn believer
I am I am, I am I am a goddamn believer


************************************

| /   slide up
| \   slide down
| h   hammer-on
| p   pull-off
| ~   vibrato
| +   harmonic
| x   Mute note
| b   Bend
| pb  Pre-bend
| br  Bend release
| pbr Pre-bend release
| brb Bend release bend

************************************
Добавлено: 12.09.2013
Вам также может быть интересно:
Другие материалы по этой песне:
  • Аккорды и текст

Страница создана 12.09.2013
http://primanota.ru/cold-specks/blank-maps-chords.htm
Привет, Гость.
Предлагаем пройти революционный курс по гитаре.
Подарок от PrimaNota.Ru, забирай!