PrimaNota.ru - самый крупный в мире бесплатный архив песенных текстов, аккордов, табулатур и нот


Cold Chisel - Goodbye Astrid Goodbye - таба, видео

Регистрация Запомнить меня
Войти через:  Facebook Google Twitter Vk Yandex Mail.ru

Cold Chisel - Goodbye Astrid Goodbye - таба, видео

Печатать
Просмотров: 107
Verse/chorus riff

-----------------------------------------------------------------------|
-----------------------------------------------------------------------|
-------------------------------2---4---2---4---2---4---2---4-----------|
-2---4---2---4---2---4---2---4-0-0-0-0-0-0-0-0-0-0-0-0-0-0-0-----------|
-0-0-0-0-0-0-0-0-0-0-0-0-0-0-0-------------------------------2---4---2-|
-------------------------------------------------------------0-0-0-0-0-|

----------------------------------------------------|
----------------------------------------------------|
----------------------------------------------------|   Repeat through
--------------------2---4---2---4---2---4---2---4---|    whole song
--4---2---4---2---4-0-0-0-0-0-0-0-0-0-0-0-0-0-0-0---|
0-0-0-0-0-0-0-0-0-0---------------------------------|


Chorus riff
with verse riff as rythm 

Goodbye                Goodbye               Goodbye
--------12-12-12-12-12---------12-12-12-12-12---------10-10-10-10-10-----|
--------10-10-10-10-10---------10-10-10-10-10---------10-10-10-10-10-----|
--------9--9--9--9--9----------9--9--9--9--9----------7--7--7--7--7------|
------------------------------------------------------7--7--7--7--7------|
-------------------------------------------------------------------------|
-------------------------------------------------------------------------|

Goodbye        Goodbye now babe, I wont be back for long
--------10-10-10-10-10-----------------------------------------------|
--------10-10-10-10-10-----------------------------------------------|
--------7--7--7--7--7------------------------------------------------|
--------7--7--7--7--7----------------------------------2---4---2---4-|
------------------------2---4---2---4---2---4---2---4--0-0-0-0-0-0-0-|
------------------------0-0-0-0-0-0-0-0-0-0-0-0-0-0-0-0--------------|
                  (Repeat as the song goes)
----------------------------------|
----------------------------------|
----------------------------------|
--2---4---2---4-------------------|
0-0-0-0-0-0-0-0-------------------|
----------------------------------|
Добавлено: 13.03.2012
Другие материалы по этой песне:

Страница создана 13.03.2012
http://primanota.ru/cold-chisel/goodbye-astrid-goodbye-chords.htm
Привет, Гость.
Предлагаем пройти революционный курс по гитаре.
Подарок от PrimaNota.Ru, забирай!