PrimaNota.ru - самый крупный в мире бесплатный архив песенных текстов, аккордов, табулатур и нот


Colchon - Quisiera - бас-таба, видео

Регистрация Запомнить меня
Войти через:  Facebook Google Twitter Vk Yandex Mail.ru

Colchon - Quisiera - бас-таба, видео

Печатать
Просмотров: 104
PUERTO
Esta canción esta chingonsisima y el tab igual.
Me inspire en hacerla para que pato se la aprenda super chingón

INTRO

|---------------------------|
|-2-2-2-2/4-4-4-------------|
|---------------4-4-4\2-2-2-|
|---------------------------|

YA LUEGO QUE EMPIEZAN A SONAR BAJO LOS TAMBORES

|-----------------------------------|
|-----------------------------------|
|-----------------------------------|
|-0000000-2222222-4444444-5555555---|

|---------------------------------------------------------------------------|
|---------------------------------------------------------------------------|
|---------------------------------------------------------------------------|x2
|-0x0x0x0x-0-0x0x-0-2x2x-2-2x2x-2-2x2x-2-4x4x4x4x-4-4x4x-4-4x4x-5-5x5x-55-0~|

ES DIFICIL OLVIDAR...

|----------------------------------------|
|----------------------------------------|
|----------------------------------------|x1
|-00000000-22222222-44444444-5555555-5/0-|

|------------------------|
|------------------------|
|------------------------|x1
|-00-0-22-2-44-4-55-4-55-|

|-----------------------------|
|-----------------------------|
|-----------------------------|x1
|-0000-2222222-4444-555555-0~-|

|----------------------------------------------------------------------------|
|----------------------------------------------------------------------------|
|----------------------------------------------------------------------------|x1
|-0x0x0x0x-0-0x0x-0-2x2x-2-2x2x-2-2x2x-2-4x4x4x4x-4-4x4x-4-4x4x-5-5x5x-55-0~-|

QUISIERA QUE ESTEMOS JUNTOS...

|---------------------------------------|
|---------------------------------------|
|---------------------------------------|x1
|-00000000-22222222-44444444-55-5-7-5-4-|

QUISIERA OLVIDAR!!!

|------------------------|
|------------------------|
|------------------------|x1
|-00-0-22-2-44-4-55-4-55-|

ANTES DEL CORO

|----------------|
|----------------|
|----------------|
|-00-0-0-00-0-00-|

CORO

|-------------------------|
|-------------------------|
|-------------------------|x2
|-5-555-7-777-9-999-7-777-|

|----------------|
|----------------|
|----------------|
|-55-5-5-55-5-55-|

EN LA PARTE TRANQUILA

|-----------------|
|-2-2-2-2-2-2-2-2-|
|-----------------|
|-----------------|

NO TE ACUERDAS!!!

|-------------------------------------|
|-------------------------------------|
|-------------------------------------|x2
|-55555555-77777777-99999999-77777777-|

CORO

|-------------------------|
|-------------------------|
|-------------------------|x2
|-5-555-7-777-9-999-7-777-|

YA EN EL SOLO SE QUEDA CALLADO Y LUEGO

|------------------------------------------------------------------|
|------------------------------------------------------------------|
|------------------------------------------------------------------|
|-5-55/7-777/9-999\7-777777---555-555555-7-777777-9-999999-7777777-|

CORO FINAL

|-------------------------|
|-------------------------|
|-------------------------|x2
|-5-555-7-777-9-999-7-777-|

FINAL

|-----------------|
|-----------------|
|---------------0~|
|-55-5-555-5-55---|

Colchon Rocks!!!                       Ticket es una ley!!!

   _ _ _   _ _ _   _ _ _   _    _   _ _ _   _ _ _
  |_   _| |_   _| |  _ _| | |  / / |  _ _| |_   _|
    | |     | |   | |     | | / /  | |_      | |
    | |     | |   | |     | |/ /   |  _|     | |
    | |     | |   | |     | |\ \   | |       | |
    | |    _| |_  | |_ _  | | \ \  | |_ _    | |
    |_|   |_ _ _| |_ _ _| |_|  \_\ |_ _ _|   |_|
Добавлено: 03.04.2012
Другие материалы по этой песне:
  • Аккорды и текст

Страница создана 03.04.2012
http://primanota.ru/colchon/quisiera-chords.htm
Привет, Гость.
Предлагаем пройти революционный курс по гитаре.
Подарок от PrimaNota.Ru, забирай!