PrimaNota.ru - самый крупный в мире бесплатный архив песенных текстов, аккордов, табулатур и нот


Colchon - Miel - таба, видео

Регистрация Запомнить меня
Войти через:  Facebook Google Twitter Vk Yandex Mail.ru

Colchon - Miel - таба, видео

Печатать
Просмотров: 152
Pues aqui esta la rola.. Este es el primer TAB que ingreso, y no, no lo saque yo, de
lo tome de lacuerda.net y como no estaba aqui crei que era buena idea ponerlo xD.
Pues espero que les guste.
Mi unico Tip seria.. Toquenla con sentimiento..

Intro:
Guitar 1

--------------7--------------|
-----------------------------|
-----9----------9------------| (x 8)
---9---9----9----------------|
-7--------7------------------|
-----------------------------|

Intro:
Guitar 2
Esto es empezando cada ves que repitas el intro

----------------      -----------------------------|
----------------      -----------------------------|
----------------      -----------------------------|
-9-9--9-9-9-9--- (x1) -9-9-9-9-9-9-9-9-7-9--9-7-9--| (x1)
-7-6--6---------      -7---7-6---6-----------------|
--------9-9-7---      -------------9-----9--7------|

Guitar: 1 y 2
---------------------|
---------------------|
-9-------------------|
-9--9--11---6--7-----|(x 2)
-7--9--11---6--7-----|
----7---9---4--5-----|


Aquí empieza a cantar:

por el tiempo que estuvimos juntos ......

-7-7-7-7--5-5-5-5--4-4-4-4---4-5-4---4-5h-4---4--|
--5-5-5-5--5-5-5-5--2-2-2-2--------5--------5----|
-------------------------------------------------|
-------------------------------------------------|(x 2)
-------------------------------------------------|
-------------------------------------------------|

Coro:

Guitar 1:

Por ti.....

-------------|
-------------|
-5--7--9--7--|
-5--7--9--7--|
-3--5--7--5--|
-------------|

Guitar 2:

-------------|
-------------|
-5--7--9--7--|
-x--x--x--x--|
-3--5--7--5--|
-------------|

Aqui sigue el precoro:

Contigo las cosas..............

-7-7-7-7--5-5-5-5--4-4-4-4---4-5-4---7-5-4-5-4----|
--5-5-5-5--5-5-5-5--2-2-2-2--------5-----------5--|
--------------------------------------------------|
--------------------------------------------------|(x 2)
--------------------------------------------------|
--------------------------------------------------|


Coro:

Guitar 1:

Por ti.....

-------------|
-------------|
-5--7--9--7--|
-5--7--9--7--|
-3--5--7--5--|
-------------|

Guitar 2:

-------------|
-------------|
-5--7--9--7--|
-x--x--x--x--|
-3--5--7--5--|
-------------|

Solo:


Guitar 1
---------------------------------------------------------------|
---------------------------------------------------------------|
---------------------------------------------------------------|
--6-7-6---6-7-6--6-----------------------------9-7---9---------|
-7-------7------7---6-7-6--6-7-6---7-6---7-9-7----9-7-7--7-7-7-|
-------------------7------7-------------9---------------9-7-5--|

------------------------------------------------------------|
------------------------------------------------------------|
------------------------------------------------------------|
--6-7-9-7-6-7-6--6-------------------------------9-7----9---|
-7--------------7---6-7-9-7-6-7-6-7-6-7----7-9-7-----9-7-7--|
-------------------7----------------------9-----------------|


Guitar 2:

-7-7-7-7--5-5-5-5--4-4-4-4---4-5-4---4-5h-4---4--|
--5-5-5-5--5-5-5-5--2-2-2-2--------5--------5----|
-------------------------------------------------|
-------------------------------------------------|
-------------------------------------------------|
-------------------------------------------------|

-7-7-7-7-7--9-9-9-7-7-7--4-4-4-4-4-------|
--5-5-5-5----7-7---5-5----3-3-3-3--------|
-----------------------------------------|
-----------------------------------------|
-----------------------------------------|
-----------------------------------------|

Coro:

Guitar 1:

por ti.....

-------------|
-------------|
-5--7--9--7--|
-5--7--9--7--|
-3--5--7--5--|
-------------|

Guitar 2:

-------------|
-------------|
-5--7--9--7--|
-x--x--x--x--|
-3--5--7--5--|
-------------|
Добавлено: 25.07.2012
Другие материалы по этой песне:

Страница создана 06.03.2012
http://primanota.ru/colchon/miel-chords.htm
Привет, Гость.
Предлагаем пройти революционный курс по гитаре.
Подарок от PrimaNota.Ru, забирай!