PrimaNota.ru - самый крупный в мире бесплатный архив песенных текстов, аккордов, табулатур и нот


Cokelat - Saat Jarak Memisahkan - таба, видео

Регистрация Запомнить меня
Войти через:  Facebook Google Twitter Vk Yandex Mail.ru

Cokelat - Saat Jarak Memisahkan - таба, видео

Печатать
Просмотров: 172
-----------------------------------------------------------------------------
                             Saat Jarak Memisahkan(solo guitar) - Cokelat
-----------------------------------------------------------------------------
Tabbed by: Gilang
Email   : sltp1ykstudent@yahoo.com
Song title      : Saat Jarak Memisahkan(Solo Guitar)
Band    : Cokelat
Album   : Dari Hati


Tuning:Standard Tuning
       E,A,D,G,B,e


e||---------------------------------------------------------|
B||----------------9--11--11----12h13--12h13--12h13--12--9--|
G||-----------7-9-------------------------------------------|
D||------6-9------------------------------------------------|
A||---------------------------------------------------------|
E||---------------------------------------------------------|


e|---------------------------12--10-----------------12--|
B|---------------9--11--11------------12--10--12--------|
G|----------7-9-----------------------------------------|
D|------6-9---------------------------------------------|
A|------------------------------------------------------|
E|------------------------------------------------------|


e|------9------12---9------11---9------10---9------|
B|---------12----------11----------10----------10--|
G|-------------------------------------------------|
D|-------------------------------------------------|
A|-------------------------------------------------|
E|-------------------------------------------------|


e|-------9h11--9------10h12--10-------11h13--11------12h14--12---|
B|---11-----------12--------------13-------------14--------------|
G|---------------------------------------------------------------|
D|---------------------------------------------------------------|
A|---------------------------------------------------------------|
E|---------------------------------------------------------------|


e|-----------------------17-----15------------||
B|---12---14---15---17---------------15~------||
G|--------------------------------------------||
D|--------------------------------------------||
A|--------------------------------------------||
E|--------------------------------------------||


Not impossible, if this tab has many mistake, coz i'm beginner.

| /  slide up
| \  slide down
| h  hammer-on
| p  pull-off
| ~  vibrato
| +  harmonic
| x  Mute note
============================================================================
Добавлено: 26.07.2012
Другие материалы по этой песне:
  • Аккорды и текст

Страница создана 03.05.2012
http://primanota.ru/cokelat/saat-jarak-memisahkan-chords.htm
Привет, Гость.
Предлагаем пройти революционный курс по гитаре.
Подарок от PrimaNota.Ru, забирай!