PrimaNota.ru - самый крупный в мире бесплатный архив песенных текстов, аккордов, табулатур и нот


Coil - Resurrection - таба, видео

Регистрация Запомнить меня
Войти через:  Facebook Google Twitter Vk Yandex Mail.ru

Coil - Resurrection - таба, видео

Печатать
Просмотров: 120
Group:  COIL
Album:  Gitaroo Man Soundtrack
Transcribed by:  "SOT/VO" Mike Canales
Standard tuning.
 
4/4 time
 
Chorus:
 
|       |       |       |        |       |       |       |       
|9---------------9-----7-----5---|7---------7-----5-----3---|
|--------------------------------|--------------------------------|
|--------------------------------|--------------------------------|
|--------------------------------|--------------------------------|
|--------------------------------|--------------------------------|
|--------------------------------|--------------------------------|
 
 |       |       |       |        |       |       |       |       
|4------------4-----5-----7---|--------------------------------|
|-----------------------------   |7---------------7/9-----7----|
|--------------------------------|------------------------------9|
|--------------------------------|--------------------------------|
|--------------------------------|--------------------------------|
|--------------------------------|--------------------------------|
 
 |       |       |       |        |       |       |       |       
|9------------9-----7-----5---|7------- -7-----5-----3---|
|--------------------------------|--------------------------------|
|--------------------------------|--------------------------------|
|--------------------------------|--------------------------------|
|--------------------------------|--------------------------------|
|--------------------------------|--------------------------------|
 
 |       |       |       |        |       |       |       |       
|6-------------------------------|5-----------------------3-------|
|--------------7-----------------|----------------6---------------|
|--------------------------------|--------------------------------|
|--------------------------------|--------------------------------|
|--------------------------------|--------------------------------|
|--------------------------------|--------------------------------|
 
 |       |       |       |        |       |       |       |       
|0-------------------------------|--------------------------------|
|5-------------------------------|--------------------------------|
|--------------------------------|--------------------------------|
|--------------------------------|--------------------------------|
|--------------------------------|--------------------------------|
|--------------------------------|--------------------------------|
CHORDS FOR THE MAIN PART OF SONG
 |       |       |       |        |       |       |       |       
|-0--------------0--------------|--0-------------0----------------|
|-0--------------0---------------|-0-------------0-----------------|
|-1--------------4---------------|-3-------------2-----------------|
|-2--------------5---------------|-4-------------3-----------------|
|-2--------------5---------------|-4-------------3-----------------|
|-0--------------3---------------|-2-------------1------------------|
 
CHORDS FOR CHORUS
 |        |       |         |          |             |          |       
|-0--------------0-----------------|-0-------------0------------------|
|-0--------------0-----------------|-0-------------0------------------|
|-6--------------4-----------------|-1-------------3------------------|
|-7--------------5-----------------|-2-------------4------------------|
|-7--------------5-----------------|-2-------------4------------------|
|-5--------------3-----------------|-0-------------2------------------|
 
 |        |       |       |            |       |       |       |       
|-0--------------0-----------------|-0-------------0------------------|
|-0--------------0-----------------|-0-------------0------------------|
|-6--------------4-----------------|-3-------------2------------------|
|-7--------------5-----------------|-4-------------3------------------|
|-7--------------5-----------------|-4-------------3------------------|
|-5--------------3-----------------|-2-------------1------------------|
 
 -0----------------------------------------------------------------      
|-0-------------------------------|--------------------------------|
|-1-------------------------------|--------------------------------|
|-2-------------------------------|--------------------------------|
|-2-------------------------------|--------------------------------|
|-0-------------------------------|--------------------------------|
 
 

     
Добавлено: 21.09.2013
Другие материалы по этой песне:
  • Аккорды и текст

Страница создана 21.09.2013
http://primanota.ru/coil/resurrection-chords.htm
Привет, Гость.
Предлагаем пройти революционный курс по гитаре.
Подарок от PrimaNota.Ru, забирай!